Song name
# A B C D E F G H I J K L M N O P Q R S T U V W X Y Z

Casual Wish - The Things That Break When You Scream tab

Casual Wish
"The Things That Break When You Scream"

Drop C - (Live Version)
Standard Tuning - (Recorded Version)


Intro:
(2 Guitars)
 
     h/p
D|---12-4-5-7-5-4-0--|
A|-------------------|
F|-------------------|
C|-6-----------------|
G|-4-----------------|
C|-------------------|
     h/p
D|---12-4-5-7-5-4-0--|
A|-------------------|
F|-------------------|
C|-2-----------------|
G|-0-----------------|
C|-------------------|
     h/p
D|---12-4-5-7-5-4-0--|
A|-------------------|
F|-------------------|
C|-2-----------------|
G|-2-----------------|
C|-2-----------------|
     h/p
D|-------------------|
A|---12-4-5----------|
F|-------------------|
C|-4-----------------|
G|-2-----------------|
C|-------------------|


Prechorus/Preverse:

  Rhythm Guitar
D|-------------------|
A|-------------------|
F|-------------------|
C|-6--2--2--4--2-----|
G|-4--0--2--2--0-----|
C|-------2-----------|

 Lead Guitar
D|-5-4-0-------7-5-4-7----------------|
A|-------5-4-0---------5-4-4-5-5-5----|
F|------------------------------------|
C|------------------------------------|
G|------------------------------------|
C|------------------------------------|


Verse

  "Your secret is death in my lips..."
D|-------------------|
A|-------------------|
F|-------------------|
C|-6--2--2--4--------|
G|-4--0--2--2--------|
C|-------2-----------|


Prechorus/Preverse:

  Rhythm Guitar
  "Trust me I know where I stand."
D|-------------------|
A|-------------------|
F|-------------------|
C|-6--2--2--4--------|
G|-4--0--2--2--------|
C|-------2-----------|

 Lead Guitar
D|-5-4-0-------7-5-4-7----------------|
A|-------5-4-0---------5-4-4-5-5-5----|
F|------------------------------------|
C|------------------------------------|
G|------------------------------------|
C|------------------------------------|


Chorus
  "This is goodbye, forget me tonight."
D|------------------------5-4-----7---|
A|----------------------------5-4---5-|
F|------------------------------------|
C|-6--9--2--4--6-7--9-----------------|
G|-4--7--2--4--6-7--9-----------------|
C|-------2--4--6-7--9-----------------|


Verse

  Rhythm Guitar:
  "When we forget this whole night..."
D|-------------------|
A|-------------------|
F|-------------------|
C|-6--2--2--4--------|
G|-4--0--2--2--------|
C|-------2-----------|



Prechorus/Preverse:

  Rhythm Guitar
D|-------------------|
A|-------------------|
F|-------------------|
C|-6--2--2--4--2-----|
G|-4--0--2--2--0-----|
C|-------2-----------|

 Lead Guitar
D|-5-4-0-------7-5-4-7----------------|
A|-------5-4-0---------5-4-4-5-5-5----|
F|------------------------------------|
C|------------------------------------|
G|------------------------------------|
C|------------------------------------|


 Chorus
 "This is goodbye, forget me tonight."
D|------------------------------------|
A|------------------------------------|
F|------------------------------------|
C|-6--9--2--4--6-7--9-----------------|
G|-4--7--2--4--6-7--9-----------------|
C|-------2--4--6-7--9-----------------|


D|------------------------------------|
A|------------------------------------|
F|------------------------------------|
C|-6--9--2-x-4--6-7--9--4--2----------|
G|-4--7--2-x-4--6-7--9--2--0----------|
C|-------2-x-4--6-7--9----------------|


Prechorus/Preverse:

  Rhythm Guitar
D|-------------------|
A|-------------------|
F|-------------------|
C|-6--2--2--4--------|
G|-4--0--2--2--------|
C|-------2-----------|

 Lead Guitar
D|-5-4-0-------7-5-4-7----------------|
A|-------5-4-0---------5-4-4-5-5-5----|
F|------------------------------------|
C|------------------------------------|
G|------------------------------------|
C|------------------------------------|

  Rhythm Guitar
D|-------------------|
A|-------------------|
F|-------------------|
C|-6--2--2--4--------|
G|-4--0--2--2--------|
C|-------2-----------|

 Lead Guitar
D|-7-9-----12---7-9----12-------------|
A|----9-10---12----9-10--12-----------|
F|------------------------------------|
C|------------------------------------|
G|------------------------------------|
C|------------------------------------|


Lyrics:

Your secret is death on my lips, no one will know of this.
Weíre in this, side by side to control, the bottle is calling you - and,
Recite to you, this sad song will admit, my eyes will stare into yours.
The times I held you, was love at it's best, donít ever forget it,
Cause it's all that youíll get.

Trust me, I know where I stand.
Trust me, We go hand in hand.

This is goodnight, forget me tonight.
This is goodbye, forget me tonight.

When we forget this whole night, itíll be gone forever.
Breath in, exhale, it's more than you get, a life worth drowning in and.
This is a song for my sick drama queen, your crown is fading and starting to bleed.
Itís a delicate subject if you know what I mean
These words will breakout whenever you scream.

Trust me, I know where I stand.
Trust me, We go hand in hand.

This is goodnight, forget me tonight.
This is goodbye, forget me tonight.
Tap to rate this tab
# A B C D E F G H I J K L M N O P Q R S T U V W X Y Z