Guitaretab - guitar tabs
Song name
# A B C D E F G H I J K L M N O P Q R S T U V W X Y Z

Casual Wish - 1143 tab

  INTRO: [CLEAN/REVERB]
E|-----------------------2----3-----------|
B|----------------------------------------|
G|---12-11----12--11----------------------|
D|-/-10-10-----0---0-----2----2-----------|
A|-/-10-10-----0---0-----2----2-----------|
D|-/-10-10-----0---0-----2----2-----------|

  Verse: [DISTORTION,NO REVERB]
E|----------------------------------------|
B|----------------------------------------|
G|------------------------------------5---|
D|-10-----0-----2--------------2X--5--5---|
A|-10-----0-----2--------------2X--2--3---|
D|-10-----0-----2--------------2X---------|

  Chorus:
E|----------------------------------------|
B|----------------------------------------|
G|-5--7---------5---7---5--7---------5--7-|
D|-5--7--2X--5--5---7---5--7--2X--5--5--7-|
A|-3--5--2X--2--3---5---3--5--2X--2--3--5-|
D|-------2X-------------------2X----------|

  Intro:
E|-----------------------2----3-----------|
B|----------------------------------------|
G|---12-11----12--11----------------------|
D|-/-10-10-----0---0-----2----2-----------|
A|-/-10-10-----0---0-----2----2-----------|
D|-/-10-10-----0---0-----2----2-----------|

  Bridge:
E|----------------------------------------|
B|----------------------------------------|
G|-------11-12-----------11-12------------|
D|-10-10-------------0-0------------------|
A|-10-10-------------0-0------------------|
D|-10-10-------------0-0------------------|
[ Tab from: http://www.guitaretab.com/c/casual-wish/93320.html ]
  Pre Chorus:
E|----------------------------------------|
B|----------------------------------------|
G|----------5-----------------------------|
D|-2--2--5--5-----------------------------|
A|-2--2--2--3-----------------------------|
D|-2--2-----------------------------------|

  CHORUS:
E|----------------------------------------|
B|----------------------------------------|
G|-5--7---------5---7---5--7---------5--7-|
D|-5--7--2X--5--5---7---5--7--2X--5--5--7-|
A|-3--5--2X--2--3---5---3--5--2X--2--3--5-|
D|-------2X-------------------2X----------|
 
  Intro:
E|-----------------------2----3-----------|
B|----------------------------------------|
G|---12-11----12--11----------------------|
D|-/-10-10-----0---0-----2----2-----------|
A|-/-10-10-----0---0-----2----2-----------|
D|-/-10-10-----0---0-----2----2-----------|

  Verse:
E|----------------------------------------|
B|----------------------------------------|
G|------------------------------------5---|
D|-10-----0-----2--------------2X--5--5---|
A|-10-----0-----2--------------2X--2--3---|
D|-10-----0-----2--------------2X---------|

  Chorus:
E|----------------------------------------|
B|----------------------------------------|
G|-5--7---------5---7---5--7---------5--7-|
D|-5--7--2X--5--5---7---5--7--2X--5--5--7-|
A|-3--5--2X--2--3---5---3--5--2X--2--3--5-|
D|-------2X-------------------2X----------|

  Outro:  
E|----------------------3--2--------------|
B|----------------------------------------|
G|-12-11-----12-11------------------------|
D|-10-10------0--0------2--2--------------|
A|-10-10------0--0------2--2--------------|
D|-10-10------0--0------2--2--------------|

E|----------------------------------------|
B|-------------12-------------------------|
G|-11-12-11-------12-11-12~---------------|
D|----------12---------------Out-To-Piano-|
A|----------------------------------------|
D|----------------------------------------|
Related for 1143 tab
Advertisement will be closed in 10 seconds