Song name
# A B C D E F G H I J K L M N O P Q R S T U V W X Y Z

Casual Wish - Jupiter But I Want To Go To China tab

Help us improve GuitareTab! Take a short survey!
  Intro: [Clean/Reverb To Distortion]
E|----------------------------------------------------|
B|-----------------------6--5-------------------------|
G|-10--9-----10--9-------------5---------14-/-12-/-15-|
D|--0--0-10---8--8--10---5--5--5-----8~---------------|
A|--0--0--0---8--8---8---3--3--3-----8~--12-/-10-/-13-|
D|------------8--8---8---------------8~---------------|

  Verse:
E|----------------------------------------------------|
B|----------------------------------------------------|
G|--------------------14---/---12---/---15------------|
D|-0---8---10---8-----------------------------8---10--|
A|-0---8---10---8-----12---/---10---/---13----8---10--|
D|-0---8---10---8-----------------------------8---10--|


  Chorus:
E|----------------------------------------------------|
B|----------------------------------------------------|
G|--------------------7-------------------------------|
D|-8---10---10---10---7---------8~---10~--------------|
A|-8---10----8----7---5---------8~---10~--------------|
D|-8---10-----------------------8~---10~--------------|

  Bridge:
E|----------------------------------------------------|
B|---------------------------10--8--------------------|
G|---5-/-7-----9-/-10---------------------------------|
D|-0---------8-----------10---------------------------|
A|-0-3-/-5---8-7-/--8----10---8--8--------------------|
D|-0---------8-----------10---------------------------|

  Verse:
E|----------------------------------------------------|
B|----------------------------------------------------|
G|--------------------14---/---12---/---15------------|
D|-0---8---10---8-----------------------------8---10--|
A|-0---8---10---8-----12---/---10---/---13----8---10--|
D|-0---8---10---8-----------------------------8---10--|


  Chorus:
E|----------------------------------------------------|
B|----------------------------------------------------|
G|--------------------7-------------------------------|
D|-8---10---10---10---7---------8~---10~--------------|
A|-8---10----8----7---5---------8~---10~--------------|
D|-8---10-----------------------8~---10~--------------|

  Guitar Solo:
E|----------------------------------------------------|
B|----------------------------------------------------|
G|---10-------12-------14--------15---/---------------|
D|-0-------0--------0---------0-----------------------|
A|-0--8----0--10----0--12-----0--13---/---------------|
D|-0-------0--------0---------0-----------------------|

E|----------------------------------------------------------------------|
B|--------13-11--10-h11-p10---------------------------------------------|
G|-10--10-------------------12b--12-14-15-14~--14-12-10-12-10-9-10-9----|
D|-------------------------------------------------------------------12-|
A|----------------------------------------------------------------------|
D|----------------------------------------------------------------------|

  Chorus:
E|----------------------------------------------------|
B|----------------------------------------------------|
G|--------------------7-------------------------------|
D|-8---10---10---10---7---------8~---10~--------------|
A|-8---10----8----7---5---------8~---10~--------------|
D|-8---10-----------------------8~---10~--------------|


  Breakdown:
E|----------------------------------------------------|
B|----------------------------------------------------|
G|---10-9-10-----10-9-10------10-9-10-----------------|
D|-0-----------8-----------10-------------------------|
A|-0--8-7--8---8--8-7--8---10--8-7--8-----------------|
D|-0-----------8-----------10-------------------------|
Related for Jupiter But I Want To Go To China tab