Song name
# A B C D E F G H I J K L M N O P Q R S T U V W X Y Z

Casualties - Tommorow Belongs To Us tab

Tomorrow Belongs To Us - The Casualties
Intro
e|---------------|
B|---------------|
G|-7-7-7---------|
D|-7-7-7--7-7-7--|
A|-5-5-5--7-7-7--|
E|--------5-5-5--|

Verse
e|-------------------------------------------------|
B|-------------------------------------------------|
G|-11-11-11-11-11-------------9-9-9-9-9------------|
D|-11-11-11-11-11--7-7-7-7-7--9-9-9-9-9--4-4-4-4-4-|
A|-9--9--9--9--9---7-7-7-7-7--7-7-7-7-7--4-4-4-4-4-|
E|-----------------5-5-5-5-5-------------2-2-2-2-2-|

Chorus
e|----------------------------------|
B|----------------------------------|
G|-7-7-7-7-7------------------------|
D|-7-7-7-7-7--7-7-7-7-7--4-4-4-4-4--|
A|-5-5-5-5-5--7-7-7-7-7--4-4-4-4-4--|
E|------------5-5-5-5-5--2-2-2-2-2--|

e|----------------------------------|
B|----------------------------------|
G|-7-7-7-7-7------------------------|
D|-7-7-7-7-7--7-7-7-7-7--9-9-9-9-9--|
A|-5-5-5-5-5--7-7-7-7-7--9-9-9-9-9--|
E|------------5-5-5-5-5--7-7-7-7-7--|

(Bass Solo)

Bridge (> = Let Ring)
e|------------------------------------|
B|------------------------------------|
G|-11>------9>------------------------|
D|-11>--7>--9>--4>--14-14-13-13-11-11-|
A|-9->--7>--7>--4>--14-14-13-13-11-11-|
E|------5>------2>--12-12-11-11-9--9--|

Outro
e|---------------------------------------------------|
B|---------------------------------------------------|
G|-7-7-7---------4-4-4---------7-7-7---------11>>>---|
D|-7-7-7--7-7-7--4-4-4--4-4-4--7-7-7--7-7-7--11>>>---|
A|-5-5-5--7-7-7--2-2-2--4-4-4--5-5-5--7-7-7--9>>>>---|
E|--------5-5-5---------2-2-2---------5-5-5----------|
Tap to rate this tab
# A B C D E F G H I J K L M N O P Q R S T U V W X Y Z