Song name
# A B C D E F G H I J K L M N O P Q R S T U V W X Y Z

Casualties - Under Attack tab

The Casualties-Under Attack


Intro
E-----------------------------|
A-0-0--0-3/5-5-6-5-3-0-3-0----|
D-----------------------------|
G-----------------------------|
B-----------------------------|
E-------------------------x12-|
Right After Intro
E---------5-3--|
A-5-3---7-5----|
D-7-5---7-5----|
G-7-5----------|
B--------------|
E--------------|x1

Verse
E-5-5-555-5-5-555------------------------------|
A-7-7-777-7-7-777--7-7-777-6-7-6-4-------------|
D-7-7-777-7-7-777--9-9-999-8-9-8-6-------------|
G-----------------------9-9-999-8-9-8-6--------|
B----------------------------------------------|
E----------------------------------------------|x4

chorus (after first chord dont push down on the strings)
E--3-33333--|
A-5-55555---|
D-5-55555---|
G-----------|
B-----------|
E-----------|x4

E---------------------------------|
A-0-0--0-3/5-5-6-5-3-0-3-0--------|
D---------------------------------|
G---------------------------------|
B---------------------------------|
E---------------------------------|x1

E--3-33333--|
A-5-55555---|
D-5-55555---|
G-----------|
B-----------|
E-----------|x4

E--------------------------|
A-0-0--0-3/5-5-6-5-3-0-3-0-|
D--------------------------|
G--------------------------|
B--------------------------|
E--------------------------|x1

back to verse x4         ^
then do the chorus(DO THAT PART TWICE HERE)

then
E-------3-3--1-1-111--------3-3------|
A-3-3-5-5--3-3-333---3-3-5-5---------|
D-5-5-5-5---------------5-5-5-5------|
G-5-5--------------------5-5---------|
B------------------------------------|
E------------------------------------|

E--3/5-5-3/5-5-7-8-7-8-7-5-3------------|
A---------------------------------------|
D---------------------------------------|
G---------------------------------------|
B---------------------------------------|
E-----------------------------------x 1-|

E-1-1-111--------------3-3-3----|
A-3-3-333----3-3-----5-5-5------|
D-3-3-333----5-5-----5-5-5------|
G---------------5-5-------------|
B-------------------------------|
E-------------------------------|

E----------------------------------|
A----------------------------------|
D----------------------------------|
G----------------------------------|
B----------------------------------|
E--3/5-5-3/5-5-7-8-7-8-7-5-3-------|

A-7-7-777------|
D-9-9-999------|
G-9-9-999------|
B--------------|
E--------------|x8

VERSE x4 AGAIN
CHORUS AGAIN


Ending Is Somethin Like This

E----------5-3----5-3-0---5-----|
A----5-3-7-5----7-5-2-3-7-------|
D----7-5-7-5----7-5-2-5-7-------|
G----7-5-----------------5------|
B-------------------------------|
E-------------------------------|

Sorry These Are So Fucked Up,As In Backwards , Crooked And Confusing
If You Want To Contact Me And Say How Much I Suck,Go Ahead

www.myspace.com/punx630

Oh And By The Way
November 7th , 2006 The Casualties Riped The Shit In Buffalo,NY
Adios
Tap to rate this tab
# A B C D E F G H I J K L M N O P Q R S T U V W X Y Z