Song name
# A B C D E F G H I J K L M N O P Q R S T U V W X Y Z

Casualties - Tragedy tab

Intro/verse:

2x for intro, 2x for verse
e]-10-10-10-10------------]      e]--------------------]
B]-10-10-10-10-12-12-12-12]      B]-10-10-10-10-7-7-7-7]
G]-------------12-12-12-12]      G]--9--9--9--9-7-7-7-7]
D]------------------------]      D]--------------------]
A]------------------------]      A]--------------------]
E]------------------------]  2x  E]--------------------]   2x

then:
e]----------------------------]  e]----------------------------]
B]-2-2-2-2-3-3-3-3-5-5-5-5-3-2]  B]-5-5-5-5-6-6-6-6-8-8-8-8-6-5]
G]-2-2-2-2-2-2-2-2-2-2-2-2-2-2]  G]-5-5-5-5-5-5-5-5-5-5-5-5-5-5]
D]----------------------------]  D]----------------------------]
A]----------------------------]  A]----------------------------]
E]----------------------------]  E]----------------------------]

Chorus:

e]-------------------------------------||---------------------------------]
B]-------------------------------------||---------------------------------]
G]-------------------------------------||---------------------------------]
D]-11-11-11-11----------9-9-9-9-9-9-9-9||-11-11-11-11----------9-8-6-6-9-9]
A]--9--9--9--9--9-9-9-9-7-7-7-7-7-7-7-7||--9--9--9--9--9-9-9-9-7-6-4-4-7-7]
E]--------------7-7-7-7---9---9---9---9||--------------7-7-7-7------------]2x

e]------------------------------------||------------------]  
B]------------------------------------||------------------]  
G]------------------------------------||------------------]  
D]-------------11-11-------------11-11||----------9-9-9-8-]  
A]-9-9-9-9-9-9--9--9-9-9-9-9-9-9--9--9||-11-11-11-7-7-7-6-] 
E]-7-7-7-7-7-7-------7-7-7-7-7-7------||--9--9--9---------]2x

e]-----------------]
B]-----------------]
G]-----------------]
D]-----------------]
A]-9-9-9-9-9-9-9-9-]
E]-7-7-7-7-7-7-7-7-]

verse

chorus

bridge:
e]------------------------------]
B]------------------------------]
G]------------------------------]
D]-9-9-8---------11-11-9--------]
A]-7-7-6-9-9-9-9--9--9-7-9-9-9-9]
E]-------7-7-7-7---------7-7-7-7]3x

e]--------------]
B]--------------]
G]--------------]
D]-11-11-11-11--]
A]--9--9--9--9-9]
E]-------------7]

I hope you can play the song with my tab
Tap to rate this tab
 
# A B C D E F G H I J K L M N O P Q R S T U V W X Y Z