Song name
# A B C D E F G H I J K L M N O P Q R S T U V W X Y Z

Casualties - Nightmare tab

Help us improve GuitareTab! Take a short survey!
   This solo is extremely easy and i'll try my best to simplify it
   but take in mind that this is my first time submiting anything.
       It might look like a lot but its not.    Well enjoy!


           -----------------------------------|
           -----------------------------------|
           ---7-5---5-7-5---5-7-5---5-7b------|
           -------7-------7-------7-----------|
           -----------------------------------|
           -----------------------------------|


           -----------------------|
           -----------------------|
           -----------5-7-5-------|
           ---5-4-5-7-------7~----|
           -----------------------|
           -----------------------|


           -------------------------------|
           ---------------------55-88-----|
           ---------------55-77-----------|
           ---------55-77-----------------|
           ---55-77-----------------------|
           -------------------------------|
              .. .. .. ..


           -------------------------|
           -------------------------|
           ---7-5-------------------|
           -------7-7-777-5-4-5~----|
           -------------------------|
           -------------------------|


   b: string bend
   .: palm mute
   ~: vibrato

   Thats it, that simple
Related for Nightmare tab