Song name
# A B C D E F G H I J K L M N O P Q R S T U V W X Y Z

Casualties - Drinking Is Our Way Of Life tab

-------------------------------------------------------------------------------
                Drinking is Our Way of Life - The Casualties
-------------------------------------------------------------------------------
Tabbed by:Replaceits
Email:sidw@ymail.com

Tuning:Standard

e|-------------------------------------------------------------------------------|
B|-------------------------------------------------------------------------------|
G|-----------------------------------------------------7-7-7-7-------------------|
D|--7-7-7-7-7-7-7-7--2-2-2-2-2-2-2-2--5-5-5-5-5-5-5-5--7-7-7-7--7-7-7-7-7-7-7-7--|
A|--7-7-7-7-7-7-7-7--2-2-2-2-2-2-2-2--5-5-5-5-5-5-5-5--5-5-5-5--7-7-7-7-7-7-7-7--|
E|--5-5-5-5-5-5-5-5--0-0-0-0-0-0-0-0--3-3-3-3-3-3-3-3-----------5-5-5-5-5-5-5-5--|

theres weird sliding (or pick scrape) some where
around 12 or 14 just try figure it out ur self ;)
Tap to rate this tab
# A B C D E F G H I J K L M N O P Q R S T U V W X Y Z