Song name
# A B C D E F G H I J K L M N O P Q R S T U V W X Y Z

Casualties - We Are All We Have tab

We Are all We Have- The Casualties
Tuning E A D g b e
       6 5 4 3 2 1
i learned it all by ear so please comment and rate
if there is anything wrong i will fix it
thank you, David


Intro (0:01-0:011):
e|----------------------|
b|2-4-5-5-5-5-7-5-4-2-0-|
g|----------------------|
D|----------------------|
A|----------------------|
E|----------------------|       x2

(0:11-0:23)
e|-------------------------------|
b|-------------------------------|
g|6-4-6-6---9--------------------|
D|6-4-6-6-7-9-9----9-9-9-9-------|
A|4-2-4-4-7-7-9----9-9-9-9-------|
E|--------5---7-x2-7-7-7-7-------|

(0:23-0:35)
e|----------------------|
b|2-4-5-5-5-5-7-5-4-2-0-|
g|----------------------|
D|----------------------|
A|----------------------|
E|----------------------|    x2

Verse
(0:35-0:58)
e|-------------------------|
b|-------------------------|
g|6-9---9---6-9---9---9----|
D|6-9-7-9-9-6-9-7-9-9-9-9--|
A|4-7-7-7-9-4-7-7-7-9-7----|Proxy-Connection: keep-alive
Cache-Control: max-age=0


E|----5---7-----5---7---7-    x2

(0:58-1:04)
e|------|
b|------|
g|9-----|
D|9-6-7-|
A|7-6-7-|
E|--4-5-| x2

Chorus
(1:04-1:15)
e|--------|
b|--------|
g|6---9---|
D|6-7-9-9-|
A|4-7-7-9-|
E|--5---7-| x2

Verse 2
(1:15-1:17)
e|--------|
b|--------|
g|6-4-6-4-|
D|6-4-6-4-|
A|4-2-4-2-|
E|--------|

(1:17-1:40)
e|------------------------|
b|------------------------|
g|6-9---9---6-9---9---9---|
D|6-9-7-9-9-6-9-7-9-9-9-9-|
A|4-7-7-7-9-4-7-7-7-9-7-9-|
E|----5---7-----5---7---7-|    x2

(1:40-1:46)
e|------|
b|------|
g|9-----|
D|9-6-7-|
A|7-6-7-|
E|--4-5-|    x2

Chorus
(1:46-1:57)
e|--------|
b|--------|
g|6---9---|
D|6-7-9-9-|
A|4-7-7-9-|
E|--5---7-| x2

Bridge
(1:57-2:03)
e|------|
b|------|
g|9-----|
D|9-6-7-|
A|7-6-7-|
E|--4-5-|    x2

Solo
(2:03-2:16)
e|---------------------------------------------|
b|2-4-5-4-0-7-9-10-9-7-5-9-10-9-12-------------|
g|---------------------------------6-4-6-4-----|
D|---------------------------------6-4-6-4-----|
A|---------------------------------4-2-4-2-----|
E|---------------------------------------------|

Verse 3
(2:16-2:40)all bass and vocals

Chorus
(2:40-3:06)
e|--------|
b|--------|
g|6---9---|
D|6-7-9-9-|
A|4-7-7-9-|
E|--5---7-| x4

the last two times the lead guitar plays
e|----------------------|
b|2-4-5-5-5-5-7-5-4-2-0-|
g|----------------------|
D|----------------------|
A|----------------------|
E|----------------------|
Tap to rate this tab
 
# A B C D E F G H I J K L M N O P Q R S T U V W X Y Z