Casualties - Rejected And Unwanted tab

-----------------------------------------------------------------------------
                     Rejected and Unwanted – The Casualties 
-----------------------------------------------------------------------------

Tabbed by: Sudor de Huevos Kevin
kevinsk8punk@hotmail.com
http://www.911tabs.com/
http://www.ultimate-guitar.com

Guitar tab.

Intro (Palm-Mute)
e|--------------------------------------------------------------------------|
B|--------------------------------------------------------------------------|
G|--------------------------------------------------------------------------|
D|-9----9-9-9-9-9-9-9------9------9-9-9-9-9-9-9-9---------------------------|
A|-9----9-9-9-9-9-9-9------9------9-9-9-9-9-9-9-9---------------------------|
E|-7----7-7-7-7-7-7-7------7------7-7-7-7-7-7-7-7---------------------------|
        PM………………………………            PM…………………………………
Verse
e|-----------------------------------------------------------------------|
B|-----------------------------------------------------------------------|
G|-----------------------12-12-12-12----7-7----9-9-----------------------|
D|---9-9-9-9-9-9-9-9-----12-12-12-12----7-7----9-9-----------------------| x4
A|---9-9-9-9-9-9-9-9-----10-10-10-10----5-5----7-7-----------------------|
E|---7-7-7-7-7-7-7-7-----------------------------------------------------|

Chorus
e|-----------------------------------------------------------------------|
B|-----------------------------------------------------------------------|
G|---6-6-6-6-------------------------12-12---11-11-----------------------|
D|---6-6-6-6----7-7-7-7---9-9-9-9----12-12---11-11-----------------------| X4
A|---4-4-4-4----7-7-7-7---9-9-9-9----10-10---9--9------------------------|
E|--------------5-5-5-5---7-7-7-7----------------------------------------|

 In the bass solo the guitar just plays this
e|-----------------------------------------------------------------------|
B|-----------------------------------------------------------------------|
G|-----------------------------------------------------------------------|
D|--7-7-7---7-7-7----5---------------------------------------------------|
A|--7-7-7---5-5-5----5---------------------------------------------------|
E|--5-5-5------------7---------------------------------------------------|
Tap to rate this tab
 
# A B C D E F G H I J K L M N O P Q R S T U V W X Y Z