Song name
# A B C D E F G H I J K L M N O P Q R S T U V W X Y Z

Casualties - In The Tombs tab

Song: In The Tombs
Band: The Casualties
Albm: We Are All We Have

Intro:
|  A           D           G           Em
|--------------------------------------------------|
|--------------------------------------------------|
|--------------7--7--7--7--------------1--1--1--1--|
|--7--7--7--7--7--7--7--7--5--5--5--5--2--2--2--2--|
|--7--7--7--7--5--5--5--5--5--5--5--5--2--2--2--2--|
|--5--5--5--5--------------3--3--3--3--0--0--0--0--|

Verse:
|  E       B       C       G       C       G       D
|-------------------------------------------------------------------|
|-------------------------------------------------------------------|
|--9-9-9-9-4-4-4-4-5-5-5-5---------5-5-5-5---------7-7-7-7-7-7-7-7--|
|--9-9-9-9-4-4-4-4-5-5-5-5-5-5-5-5-5-5-5-5-5-5-5-5-7-7-7-7-7-7-7-7--|
|--7-7-7-7-2-2-2-2-3-3-3-3-5-5-5-5-3-3-3-3-5-5-5-5-5-5-5-5-5-5-5-5--|
|--------------------------3-3-3-3---------3-3-3-3------------------|

Chorus:
|  E               D               E               A       G
|-------------------------------------------------------------------|
|-------------------------------------------------------------------|
|--9-9-9-9-9-9-9-9-7-7-7-7-7-7-7-7-9-9-9-9-9-9-9-9------------------|
|--9-9-9-9-9-9-9-9-7-7-7-7-7-7-7-7-9-9-9-9-9-9-9-9-7-7-7-7-5-5-5-5--|
|--7-7-7-7-7-7-7-7-5-5-5-5-5-5-5-5-7-7-7-7-7-7-7-7-7-7-7-7-5-5-5-5--|
|--------------------------------------------------5-5-5-5-3-3-3-3--|

Ending:
|  E       G         D       E
|------------------------------------|
|------------------------------------|
|--9--9----12--12----7--7----9--9----|
|--9--9----12--12----7--7----9--9----|
|--7--7----10--10----5--5----7--7----| x2
|------------------------------------|

Thats is. email me owen_b123@hotmail.com
Tap to rate this tab
 
# A B C D E F G H I J K L M N O P Q R S T U V W X Y Z