Song name
# A B C D E F G H I J K L M N O P Q R S T U V W X Y Z

Casualties - Ugly Bastards tab

-------------------------------------------------------------------------
                  UGLY BASTARDS - The Casualties
-------------------------------------------------------------------------

By: Greg,Destructionandhate@hotmail.com 
INTRO:
e|----------------------------------------------------------------|
B|----------------------------------------------------------------|
G|---11-11-11-11--------------------------------------------------|
D|---11-11-11-11-11-9-8-8-8-8-9-9-8-9-----------------------------|
A|----9--9--9--9-11-9-8-8-8-8-9-9-8-9-----------------------------|
E|----------------9-7-6-6-6-6-7-7-6-7-----------------------------|

VERSE:
e|----------------------------------------------------------------|
B|----------------------------------------------------------------|
G|---11-11-11-11-11-11--------------------------------------------|
D|---11-11-11-11-11-11-11-9-8-8-8-8-9-9-8-9-----------------------|
A|----9--9--9--9--9--9-11-9-8-8-8-8-9-9-8-9-----------------------|
E|----------------------9-7-6-6-6-6-7-7-6-7-----------------------|
repeat 4 times

CHORUS:
e|----------------------------------------------------------------|
B|----------------------------------------------------------------|
G|---9-9-9-9---------6-6-6-6--------------------------------------|
D|---9-9-9-9-7-7-7-7-6-6-6-6-9-9-9-9------------------------------|
A|---7-7-7-7-7-7-7-7-4-4-4-4-9-9-9-9------------------------------|
E|-------------5-5-5-5-------7-7-7-7------------------------------|

repeat 4 times

-------------------------------------------------------------------------
Tap to rate this tab
 
# A B C D E F G H I J K L M N O P Q R S T U V W X Y Z