Song name
# A B C D E F G H I J K L M N O P Q R S T U V W X Y Z

Casualties - We Are All We Have tab

Tabbed it out pretty good, sounds exactly like the original.
It's a very easy song to learn, watch the video on youtube for 
the timing and you'll be fine.

INTRO
e|-------------0-0-0-2--0-----------||-------------0-0-0-2--0-----------|
B|--2--0---------------------4-2-0--||--2--0---------------------4-2-0--|
G|-------2--------------------------||-------2--------------------------|
D|----------------------------------||----------------------------------|
A|----------------------------------||----------------------------------|
E|----------------------------------||----------------------------------|

e|------------------------||------------------------------|
B|------------------------||------------------------------|
G|--6--4-6-6-4--2~~-9~----||--6--4-6-6-4--2---9-----------|
D|--6--4-6-6-4--2~~-9~-9~-||--6--4-6-6-4--2---9--9-9-9-9--|
A|--4--2-4-4-2--0~~-7~-9~-||--4--2-4-4-2--0~~-7~-9-9-9-9--|
E|---------------------7~-||---------------------7-7-7-7--|

e|----------0-0-0-2--0----------||----------0-0-0-2--0----------|
B|--2--4-5---------------4-2-0--||--2--4-5---------------4-2-0--|
G|------------------------------||------------------------------|
D|------------------------------||------------------------------|
A|------------------------------||------------------------------|
E|------------------------------||------------------------------|

VERSE 1
e|-----------------|-----------------|-----------------|-------------------|
B|-----------------|-----------------|-----------------|-------------------|
G|-6-6-6-6-6-6-6-6-|-9-9-9-9-9-9-9-9-|-----------------|-9-9-9-9-----------|
D|-6-6-6-6-6-6-6-6-|-9-9-9-9-9-9-9-9-|-7-7-7-7-7-7-7-7-|-9-9-9-9--9-9-9-9--|
A|-4-4-4-4-4-4-4-4-|-7-7-7-7-7-7-7-7-|-7-7-7-7-7-7-7-7-|-7-7-7-7--9-9-9-9--|
E|-----------------|-----------------|-5-5-5-5-5-5-5-5-|----------7-7-7-7--|

e|-----------------|-----------------|-----------------|----------|
B|-----------------|-----------------|-----------------|----------|
G|-6-6-6-6-6-6-6-6-|-9-9-9-9-9-9-9-9-|-----------------|-9---9----|
D|-6-6-6-6-6-6-6-6-|-9-9-9-9-9-9-9-9-|-7-7-7-7-7-7-7-7-|-9-9-9-9--|
A|-4-4-4-4-4-4-4-4-|-7-7-7-7-7-7-7-7-|-7-7-7-7-7-7-7-7-|-7-9-7-9--|
E|-----------------|-----------------|-5-5-5-5-5-5-5-5-|---7---7--|

e|-----------------|-----------------|-----------------|-------------------|
B|-----------------|-----------------|-----------------|-------------------|
G|-6-6-6-6-6-6-6-6-|-9-9-9-9-9-9-9-9-|-----------------|-9-9-9-9-----------|
D|-6-6-6-6-6-6-6-6-|-9-9-9-9-9-9-9-9-|-7-7-7-7-7-7-7-7-|-9-9-9-9--9-9-9-9--|
A|-4-4-4-4-4-4-4-4-|-7-7-7-7-7-7-7-7-|-7-7-7-7-7-7-7-7-|-7-7-7-7--9-9-9-9--|
E|-----------------|-----------------|-5-5-5-5-5-5-5-5-|----------7-7-7-7--|

e|-----------------|-----------------|-----------------|----------|
B|-----------------|-----------------|-----------------|----------|
G|-6-6-6-6-6-6-6-6-|-9-9-9-9-9-9-9-9-|-----------------|-9---9----|
D|-6-6-6-6-6-6-6-6-|-9-9-9-9-9-9-9-9-|-7-7-7-7-7-7-7-7-|-9-9-9-9--|
A|-4-4-4-4-4-4-4-4-|-7-7-7-7-7-7-7-7-|-7-7-7-7-7-7-7-7-|-7-9-7-9--|
E|-----------------|-----------------|-5-5-5-5-5-5-5-5-|---7---7--|

BRIDGE
e|-----------------|---------|----------||------------------|---------|----------|
B|-----------------|---------|----------||------------------|---------|----------|
G|-9-9-9-9-9-9-9-9-|---------|----------||--9-9-9-9-9-9-9-9-|---------|----------|
D|-9-9-9-9-9-9-9-9-|-6-6-6-6-|-7-7-7-7--||--9-9-9-9-9-9-9-9-|-6-6-6-6-|-7-7-7-7--|
A|-7-7-7-7-7-7-7-7-|-6-6-6-6-|-7-7-7-7--||--7-7-7-7-7-7-7-7-|-6-6-6-6-|-7-7-7-7--|
E|-----------------|-4-4-4-4-|-5-5-5-5--||------------------|-4-4-4-4-|-5-5-5-5--|

CHORUS
e|------------------|-----------------|-----------------|------------------|
B|------------------|-----------------|-----------------|------------------|
G|--6-6-6-6-6-6-4-4-|-2-2-2-2-2-2-2-2-|-9-9-9-9-9-9-9-9-|------------------|
D|--6-6-6-6-6-6-4-4-|-2-2-2-2-2-2-2-2-|-9-9-9-9-9-9-9-9-|-9-9-9-9-9-9-9-9--|
A|--4-4-4-4-4-4-2-2-|-0-0-0-0-0-0-0-0-|-7-7-7-7-7-7-7-7-|-9-9-9-9-9-9-9-9--|
E|------------------|-----------------|-----------------|-7-7-7-7-7-7-7-7--|

e|------------------|-----------------|-----------------|------------------|
B|------------------|-----------------|-----------------|------------------|
G|--6-6-6-6-6-6-4-4-|-2-2-2-2-2-2-2-2-|-9-9-9-9-9-9-9-9-|------------------|
D|--6-6-6-6-6-6-4-4-|-2-2-2-2-2-2-2-2-|-9-9-9-9-9-9-9-9-|-9-9-9-9-9-9-9-9--|
A|--4-4-4-4-4-4-2-2-|-0-0-0-0-0-0-0-0-|-7-7-7-7-7-7-7-7-|-9-9-9-9-9-9-9-9--|
E|------------------|-----------------|-----------------|-7-7-7-7-7-7-7-7--|

BRIDGE
e|--------------|
B|--------------|
G|--6--4-6-6-4--|
D|--6--4-6-6-4--|
A|--4--2-4-4-2--|
E|--------------|

VERSE 2
e|-----------------|-----------------|-----------------|-------------------|
B|-----------------|-----------------|-----------------|-------------------|
G|-6-6-6-6-6-6-6-6-|-9-9-9-9-9-9-9-9-|-----------------|-9-9-9-9-----------|
D|-6-6-6-6-6-6-6-6-|-9-9-9-9-9-9-9-9-|-7-7-7-7-7-7-7-7-|-9-9-9-9--9-9-9-9--|
A|-4-4-4-4-4-4-4-4-|-7-7-7-7-7-7-7-7-|-7-7-7-7-7-7-7-7-|-7-7-7-7--9-9-9-9--|
E|-----------------|-----------------|-5-5-5-5-5-5-5-5-|----------7-7-7-7--|

e|-----------------|-----------------|-----------------|----------|
B|-----------------|-----------------|-----------------|----------|
G|-6-6-6-6-6-6-6-6-|-9-9-9-9-9-9-9-9-|-----------------|-9---9----|
D|-6-6-6-6-6-6-6-6-|-9-9-9-9-9-9-9-9-|-7-7-7-7-7-7-7-7-|-9-9-9-9--|
A|-4-4-4-4-4-4-4-4-|-7-7-7-7-7-7-7-7-|-7-7-7-7-7-7-7-7-|-7-9-7-9--|
E|-----------------|-----------------|-5-5-5-5-5-5-5-5-|---7---7--|

e|-----------------|-----------------|-----------------|-------------------|
B|-----------------|-----------------|-----------------|-------------------|
G|-6-6-6-6-6-6-6-6-|-9-9-9-9-9-9-9-9-|-----------------|-9-9-9-9-----------|
D|-6-6-6-6-6-6-6-6-|-9-9-9-9-9-9-9-9-|-7-7-7-7-7-7-7-7-|-9-9-9-9--9-9-9-9--|
A|-4-4-4-4-4-4-4-4-|-7-7-7-7-7-7-7-7-|-7-7-7-7-7-7-7-7-|-7-7-7-7--9-9-9-9--|
E|-----------------|-----------------|-5-5-5-5-5-5-5-5-|----------7-7-7-7--|

e|-----------------|-----------------|-----------------|----------|
B|-----------------|-----------------|-----------------|----------|
G|-6-6-6-6-6-6-6-6-|-9-9-9-9-9-9-9-9-|-----------------|-9---9----|
D|-6-6-6-6-6-6-6-6-|-9-9-9-9-9-9-9-9-|-7-7-7-7-7-7-7-7-|-9-9-9-9--|
A|-4-4-4-4-4-4-4-4-|-7-7-7-7-7-7-7-7-|-7-7-7-7-7-7-7-7-|-7-9-7-9--|
E|-----------------|-----------------|-5-5-5-5-5-5-5-5-|---7---7--|

BRIDGE
e|-----------------|---------|----------||------------------|---------|----------|
B|-----------------|---------|----------||------------------|---------|----------|
G|-9-9-9-9-9-9-9-9-|---------|----------||--9-9-9-9-9-9-9-9-|---------|----------|
D|-9-9-9-9-9-9-9-9-|-6-6-6-6-|-7-7-7-7--||--9-9-9-9-9-9-9-9-|-6-6-6-6-|-7-7-7-7--|
A|-7-7-7-7-7-7-7-7-|-6-6-6-6-|-7-7-7-7--||--7-7-7-7-7-7-7-7-|-6-6-6-6-|-7-7-7-7--|
E|-----------------|-4-4-4-4-|-5-5-5-5--||------------------|-4-4-4-4-|-5-5-5-5--|

CHORUS
e|------------------|-----------------|-----------------|------------------|
B|------------------|-----------------|-----------------|------------------|
G|--6-6-6-6-6-6-4-4-|-2-2-2-2-2-2-2-2-|-9-9-9-9-9-9-9-9-|------------------|
D|--6-6-6-6-6-6-4-4-|-2-2-2-2-2-2-2-2-|-9-9-9-9-9-9-9-9-|-9-9-9-9-9-9-9-9--|
A|--4-4-4-4-4-4-2-2-|-0-0-0-0-0-0-0-0-|-7-7-7-7-7-7-7-7-|-9-9-9-9-9-9-9-9--|
E|------------------|-----------------|-----------------|-7-7-7-7-7-7-7-7--|

e|------------------|-----------------|-----------------|------------------|
B|------------------|-----------------|-----------------|------------------|
G|--6-6-6-6-6-6-4-4-|-2-2-2-2-2-2-2-2-|-9-9-9-9-9-9-9-9-|------------------|
D|--6-6-6-6-6-6-4-4-|-2-2-2-2-2-2-2-2-|-9-9-9-9-9-9-9-9-|-9-9-9-9-9-9-9-9--|
A|--4-4-4-4-4-4-2-2-|-0-0-0-0-0-0-0-0-|-7-7-7-7-7-7-7-7-|-9-9-9-9-9-9-9-9--|
E|------------------|-----------------|-----------------|-7-7-7-7-7-7-7-7--|

BRIDGE
e|-----------------|---------|----------||------------------|---------|----------|
B|-----------------|---------|----------||------------------|---------|----------|
G|-9-9-9-9-9-9-9-9-|---------|----------||--9-9-9-9-9-9-9-9-|---------|----------|
D|-9-9-9-9-9-9-9-9-|-6-6-6-6-|-7-7-7-7--||--9-9-9-9-9-9-9-9-|-6-6-6-6-|-7-7-7-7--|
A|-7-7-7-7-7-7-7-7-|-6-6-6-6-|-7-7-7-7--||--7-7-7-7-7-7-7-7-|-6-6-6-6-|-7-7-7-7--|
E|-----------------|-4-4-4-4-|-5-5-5-5--||------------------|-4-4-4-4-|-5-5-5-5--|

SOLO
e|------------------------------------------------7--|
B|--2--4--5--4--0---7--7-9/10/9/7--5--7-9/10/9/7-----|
G|---------------------------------------------------|
D|---------------------------------------------------|
A|---------------------------------------------------|
E|---------------------------------------------------|

BRIDGE
e|--------------|
B|--------------|
G|--6--4-6-6-4--|
D|--6--4-6-6-4--|
A|--4--2-4-4-2--|
E|--------------|

e|-----|------------------|-----------------|
B|-----|------------------|-----------------|
G|--6--|------------------|--6--4--2--9-----|
D|--6--|--BASS + SINGING--|--6--4--2--9--9--|
A|--4--|----17 seconds----|--4--2--0--7--9--|
E|-----|------------------|--------------7--|

OUTRO
e|------------------|-----------------|-----------------|------------------|
B|------------------|-----------------|-----------------|------------------|
G|--6-6-6-6-6-6-4-4-|-2-2-2-2-2-2-2-2-|-9-9-9-9-9-9-9-9-|------------------|
D|--6-6-6-6-6-6-4-4-|-2-2-2-2-2-2-2-2-|-9-9-9-9-9-9-9-9-|-9-9-9-9-9-9-9-9--|
A|--4-4-4-4-4-4-2-2-|-0-0-0-0-0-0-0-0-|-7-7-7-7-7-7-7-7-|-9-9-9-9-9-9-9-9--|
E|------------------|-----------------|-----------------|-7-7-7-7-7-7-7-7--|

e|------------------|-----------------|-----------------|------------------|
B|------------------|-----------------|-----------------|------------------|
G|--6-6-6-6-6-6-4-4-|-2-2-2-2-2-2-2-2-|-9-9-9-9-9-9-9-9-|------------------|
D|--6-6-6-6-6-6-4-4-|-2-2-2-2-2-2-2-2-|-9-9-9-9-9-9-9-9-|-9-9-9-9-9-9-9-9--|
A|--4-4-4-4-4-4-2-2-|-0-0-0-0-0-0-0-0-|-7-7-7-7-7-7-7-7-|-9-9-9-9-9-9-9-9--|
E|------------------|-----------------|-----------------|-7-7-7-7-7-7-7-7--|

e|-----------0-0-0-2-0--------|----------0-0-0-2-0---------|
B|--2--4--5-------------4-2-0-|-2--4--5-------------4-2-0--|
G|----------------------------|----------------------------|
D|----------------------------|----------------------------|
A|----------------------------|----------------------------|
E|----------------------------|----------------------------|
Tap to rate this tab
# A B C D E F G H I J K L M N O P Q R S T U V W X Y Z