Song name
# A B C D E F G H I J K L M N O P Q R S T U V W X Y Z

Casualties - Cant Stop Us tab

  this song is cool,it only took like two secs. for me to get it
 so injoi!

      *=palm mute
     listen to the song so you no the beat 

         e-----------------------------------------------------
         b-----------------------------------------------------
         g-----------------------------------------------------
         d-7-7-5-5-7-9-9-9-9-9-9-9-9-7-7-9-9-9-9-9-9-9-7-7-5-5-7
         a-7-7-5-5-7-9-9-9-9-9-9-9-9-7-7-9-9-9-9-9-9-9-7-7-5-5-7
         E-5-5-3-3-5-7-7-7-7-7-7-7-7-5-5-7-7-7-7-7-7-7-5-5-3-3-5
                     * * * * * *           * * * * * *

         e-----------------------------------------------------
         b-----------------------------------------------------
         g-----------------------------------------------------
         d-9-9-9-9-9-9-----------------------------------------
         a-9-9-9-9-9-9-----------------------------------------
         E-7-7-7-7-7-7-----------------------------------------
           * * * * * *

 N-e questions em ail me   Cacaface14@aol.com
Tap to rate this tab
# A B C D E F G H I J K L M N O P Q R S T U V W X Y Z