Song name
# A B C D E F G H I J K L M N O P Q R S T U V W X Y Z

Casualties - Victims tab

e-------------------|
B-------------------|
G-11----7-----------|
D-11----7----9----7-|
A-9-----5----9----7-|
E------------7----5-|


e-------------------------|
B-------------------------|
G-11----7-----------------|
D-11----7----9----7----11-|
A-9-----5----9----7----11-|
E------------7----5-----9-|


e--------------------------------|
B--------------------------------|
G-11-----14----11----9-----------|
D-11-----14----11----9----9----7-|
A-9------12-----9----7----9----7-|
E-------------------------7----5-|


e----------------|
B----------------|
G----11--11------|
D----11--11------|
A-----9---9------|
E----------------|
Tap to rate this tab
 
# A B C D E F G H I J K L M N O P Q R S T U V W X Y Z