Song name
# A B C D E F G H I J K L M N O P Q R S T U V W X Y Z

Casualties - Corazones Intoxicados tab

I decided to tab a song from my favorite band. This is the coolest song off of 
Resistance in my opinion.
done by ear. if any of it's wrong, i don't care. Fight me.
e|-11-14-14-14-11-----------------------------------------------------------|
B|--------------------------------------------------------------------------|
G|----------------15-15-13-11-13-15-------10-11-13-13-13-11-10h11p10--------|
D|----------------------------------13-13----------------------------13-----|
A|--------------------------------------------------------------------------|
E|---------------------------------------------------------------------(x2)-|


e|--------------------------------------------------------------------------|
B|--------------------------------------------------------------------------|
G|--------------------------------------------------------------------------|
D|--------------------------------------------------------------------------|
A|---6-6-6-9-9---------6-6---6-6-6-9-9---------6---(x2)---------------------|
E|-9-----------9-9-9-6-----6-----------9-9-9-6------------------------------|


e|--------------------------------------------------------------------------|
B|--------------------------------------------------------------------------|
G|--------------------------------------------------------------------------|
D|-----------8-8-8-8-6---------------8-6-6-6--------------------------------|
A|---6-6---6-----------9-9---6-6---6-----------6---(x2)---------------------|
E|-9-----9-----------------9-----9-----------9------------------------------|

this is as far as i got, most of this repeats through the song, but there's a couple 
parts i didn't feel like tabbing. it's not that hard to figure it out i'd assume.
Tap to rate this tab
 
# A B C D E F G H I J K L M N O P Q R S T U V W X Y Z