Song name
# A B C D E F G H I J K L M N O P Q R S T U V W X Y Z

Casualties - Rejected And Unwanted tab

-------------------------------------------------------------------------------
			     Casualties- Rejected and Unwanted
-------------------------------------------------------------------------------

Tabbed by:frozencomputer
Email:  fuzzybobbyhill@yahoo.com

Tuning: use a chromatics tuner

intro, just palm mute a bunch of times
e|---------------------------------------------------------------------------|
B|---------------------------------------------------------------------------|
G|---------------------------------------------------------------------------|
D|---------------------------------------------------------------------------|
A|---9-----------------------------------------------------------------------|
E|---7-----------------------------------------------------------------------|

e|---------------------------------------------------------------------------|
B|---------------------------------------------------------------------------|
G|----11---------------------------------------------------------------------|
D|----9--11--12--9--7--9-----------------------------------------------------|
A|-9-----9---10--7--5--7-----------------------------------------------------|
E|-7-------------------------------------------------------------------------|
chorus
e|---------------------------------------------------------------------------|
B|---------------------------------------------------------------------------|
G|---------7--6--------------------------------------------------------------|
D|-7-------5--4--------------------------------------------------------------|
A|-5--7--9-------------------------------------------------------------------|
E|----5--7-------------------------------------------------------------------|

bass solo part
e|---------------------------------------------------------------------------|
B|---------------------------------------------------------------------------|
G|---------------------------------------------------------------------------|
D|----7----------------------------------------------------------------------|
A|-7--5--9-------------------------------------------------------------------|
E|-5-----7-------------------------------------------------------------------|
Tap to rate this tab
# A B C D E F G H I J K L M N O P Q R S T U V W X Y Z