Song name
# A B C D E F G H I J K L M N O P Q R S T U V W X Y Z

Casualties - American Justice tab

E/----------------------------------------------------|
B|----------------------------------------------------|
G|------5---------------------------------------------|
D|-7----3--5------------------------------------------|
A/-5--5----3------------------------------------------|
E|----3-----------------------------------------------|

E/----------------------------------------------------|
B|----------------------------------------------------|
G|-5--7--------------5--9-----------------------------|
D|-3--5-7--5--7--5---3--7--7--5--7--5-----------------|
A/------5--3--5--3---------5--3--5--3-----------------|
E|----------------------------------------------------|

E/----------------------------------------------------|
B|----------------------------------------------------|
G|----------------------------------------------------|
D|-7-----5--------------------------------------------|
A/-5--7--3--5-----------------------------------------|
E|----5-----3-----------------------------------------|

play this solo a couple of times
E/----------------------------------------------------|
B|------6-------------8---10--8-----------------------|
G|-7--------5------7-------------10-------------------|
D|----5-----------------------------------------------|
A/----------------------------------------------------|
E|----------------------------------------------------|
Tap to rate this tab
# A B C D E F G H I J K L M N O P Q R S T U V W X Y Z