Song name
# A B C D E F G H I J K L M N O P Q R S T U V W X Y Z

Casualties - Bored And Glued tab

bored and glued

e|------------------------------------------------------|
B|------------------------------------------------------|
G|------------------6-7---------------------------------|
D|-9----6-7---4-7-7-----6-7-6---------------------------|
A|-7--7-----5-------------------------------------------|
E|------------------------------------------------------|

e|------------------------------------------------------|
B|------------------------------------------------------|
G|------------------6-7---------------------------------|
D|-----6-7---4-7-7-----6-9-7----------------------------|
A|---7-----5--------------------------------------------|
E|------------------------------------------------------|

e|------------------------------------------------------|
B|------------------------------------------------------|
G|--------9-8-9-----------------------------------------|
D|--9--7--7-6-7-----------------------------------------|
A|--7--5------------------------------------------------|
E|------------------------------------------------------|


e|------------------------------------------------------|
B|------------------------------------------------------|
G|-----9--8--11-----------------------------------------|
D|9-7--7--6--9------------------------------------------|
A|7-5---------------------------------------------------|
E|------------------------------------------------------|

e|------------------------------------------------------|
B|------------------------------------------------------|
G|------------------------------------------------------|
D|--11--12-11--12---------------------------------------|
A|--9---10--9--10---------------------------------------|
E|------------------------------------------------------|
Tap to rate this tab
 
# A B C D E F G H I J K L M N O P Q R S T U V W X Y Z