Song name
# A B C D E F G H I J K L M N O P Q R S T U V W X Y Z

Casualties - Blind Following tab

Early years... one of the best live songs on it.
Main riff
e|----------------------------------|
B|----------------------------------|
G|----------------------------------|
D|-8-8-8-8-8-8-8-8-5-5-8-8-6-6-8-10-|
A|-6-6-6-6-6-6-6-6-3-3-6-6-4-4-6-8--|
E|----------------------------------|

Every once in a while I hear this
e|-----------------|
B|-----------------|
G|-----------------|
D|-----------------|
A|-5-5-6-6-5-5-3-3-|
E|-3-3-4-4-3-3-1-1-|
Tap to rate this tab
# A B C D E F G H I J K L M N O P Q R S T U V W X Y Z