Song name
# A B C D E F G H I J K L M N O P Q R S T U V W X Y Z

Casualties - Rock And Roll Kids tab

By ear... real shitty quality, though

Intro
e|-----------------------|
B|-----------------------|
G|-----------------------|
D|---6---4---3---6-6-6-6-| x4
A|-4---3---1---4---------|
E|-----------------------|

Verse
e|-------------------------------------------------|
B|-------------------------------------------------|
G|-------------------------------------------------|
D|-6-6-6-6-6-6-4-4-4-4-4-4-3-3-3-3-3-3-------------|
A|-4-4-4-4-4-4-3-3-3-3-3-3-1-1-1-1-1-1-6-6-6-6-6-6-|
E|-------------------------------------4-4-4-4-4-4-|

Chorus
e|-------------------------------------------------|
B|-------------------------------------------------|
G|-------------------------------------------------|
D|-------------8-8-8-8-8-8-------------------------|
A|-5-5-5-5-5-5-6-6-6-6-6-6-8-8-8-8-8-8-3-3-3-3-3-3-|
E|-3-3-3-3-3-3-------------6-6-6-6-6-6-1-1-1-1-1-1-|

Last chord
A|-3-|
E|-1-|
Tap to rate this tab
 
# A B C D E F G H I J K L M N O P Q R S T U V W X Y Z