Song name
# A B C D E F G H I J K L M N O P Q R S T U V W X Y Z

Casualties - Casualties Army tab

  ---------------------------
   The Casualties- Casualties
  ---------------------------

Intro
e|--------------|
B|--------------|
G|--------------| x3
D|-9-9-xxxx-9-9-|
A|-9-9-xxxx-9-9-|
E|-7-7-xxxx-7-7-|

Verse
e|-----------------------------|
B|-----------------------------|
G|---------8-9-----------------|
D|-9-9-9-9-8-9-7-7-7-7-4-4-4-4-|
A|-9-9-9-9-6-7-7-7-7-7-4-4-4-4-|
E|-7-7-7-7-----5-5-5-5-2-2-2-2-|

Chorus
e|-----------------|
B|-----------------|
G|-----------------| x3
D|-----------------|
A|-9-9-9-9-4-4-4-4-|
E|-7-7-7-7-2-2-2-2-|

Then x1
e|-------|
B|-------|
G|-------|
D|-------|
A|-7-4-9-|
E|-5-2-7-|

Solo (in early years version)
e|-------------------------|
B|-------------------------|
G|---------8-9-------------| x3
D|-9-9-9-9-----7-7-7-4-4-4-|
A|-------------------------|
E|-------------------------|

Last time
e|-----------------------------|
B|-----------------------------|
G|---------8-9-------/11-11-11-|
D|-9-9-9-9-----7-7-7-----------|
A|-----------------------------|
E|-----------------------------|

 That's it. Good street punk.
Tap to rate this tab
 
# A B C D E F G H I J K L M N O P Q R S T U V W X Y Z