Song name
# A B C D E F G H I J K L M N O P Q R S T U V W X Y Z

Casualties - Static Feedback And Noise tab

Help us improve GuitareTab! Take a short survey!
                       -STATIC FEEDBACK AND NOISE-
                      ''''''''''''''''''''''''''''''
                           THE CASUALTIES
                        tabbed by: matt goolsby

e|---------------------------------|
b|---------------------------------|
g|---------------------------------|  intro x4.
d|-9---9---------------------------|
a|-7-9-7-9--9/10-10-101010-5-5-555-|
E|---7---7-------------------------|

1.
|----------------------------------|
|----------------------------------|
|----------------------------------|
|-9---9----12-12-12121212-7-7-7777-|
|-7-9-7-9--10-10-10101010-5-5-5555-|
|---7---7--------------------------|

2.
|--------------------------------------|
|-------------------9-999999-11-9-7-9--|      parts 1. 2. and 3. make
|-------------------7-777777--9-7-5-7--|      up the verses.
|-9-999999-9-999999--------------------|
|-7-777777-7-777777--------------------|
|--------------------------------------|

3.
|-----------------------------------------------|
|-----------------------------------------------|
|-------------------7-777777-6-666666-----------|
|-9-999999-9-999999-5-555555-4-444444-9-999999--|
|-7-777777-7-777777-------------------7-777777--|
|-----------------------------------------------|


|-------------------------------------|
|-------------------------------------|
|-------------------------------------|      chorus x4.
|-------------------------------------|
|-4-444444-4-444444-7-777777-9-999999-|
|-2-222222-2-222222-5-555555-7-777777-|

           VV solo VV
|---------------------------------------------------------------------|
|--------------------------------------12-1212-1212-17-17-17-17-17-17-|
|-11-11-11-11-11-1111-1111-14-14-14-14--------------------------------|
|---------------------------------------------------------------------|
|---------------------------------------------------------------------|
|---------------------------------------------------------------------|

|--------------------------------|
|-17-17-20-20-20-20-20-20-20-20~-|
|--------------------------------|      end solo, back to verse.
|--------------------------------|
|--------------------------------|
|--------------------------------|

|--------------------------------------------|
|--------------------------------------------|
|--------------------------------------------| hold for feedback on
|-9---9---------------------------9---9------| the last note for the
|-7-9-7-9--9/10-10-101010-5-5-555-7-9-7-9----| end.
|---7---7---------------------------7---7-9~-|

      it's a pretty fast song, so you can try out different strumming styles
     to see which one works good for you. and remember, always super heavy
     distortion, and high gain for casualties (most punk for that matter)
     songs.
Related for Static Feedback And Noise tab