Song name
# A B C D E F G H I J K L M N O P Q R S T U V W X Y Z

Casualties - Media Control tab

THE CASUALTIES-MEDIA CONTROL
Tabbed By Ben H (PunkAsPhuck)

intro 
e|--------------| 
B|--------------| 
G|--------------| 
D|-9-9--4-4-5-5-| 
A|-9-9--4-4-5-5-| 
E|-7-7--2-2-3-3-| 

verse 
e|-------------| 
B|-------------| 
G|-------9-7-7-| 
D|-9-9-9-9-7-7-| 
A|-9-9-9-7-5-5-| 
E|-7-7-7-------| 

verse
e|-------------------------| 
B|-------------------------| 
G|-------------9-9-9-9-9-9-| 
D|-7-7-7-5-5-5-9-9-9-9-9-9-| 
A|-7-7-7-5-5-5-7-7-7-7-7-7-| 
E|-5-5-5-3-3-3-------------| 

chorus 
e|-------------------------| 
B|-------------------------| 
G|-------------------------| 
D|-9-9-9-9-9-9-4-4-4-5-5-5-| 
A|-9-9-9-9-9-9-4-4-4-5-5-5-| 
E|-7-7-7-7-7-7-2-2-2-3-3-3-| 

ending
e|--------------------------------------------------------| 
B|--------------------------------------------------------| 
G|-14-14-14-----------------------------9-9-9-------------| 
D|-14-14-14-14-14-14-9-9-9-9-9-9--7-7-7-9-9-9-9-9-9-9-9-9-| 
A|-12-12-12-14-14-14-9-9-9-9-9-9--7-7-7-7-7-7-9-9-9-9-9-9-| 
E|----------12-12-12-7-7-7-7-7-7--5-5-5-------7-7-7-7-7-7-|
Tap to rate this tab
# A B C D E F G H I J K L M N O P Q R S T U V W X Y Z