Song name
# A B C D E F G H I J K L M N O P Q R S T U V W X Y Z

Casualties - Unknown Soldier tab

Intro:

G|---------------------------|------------------------------------|
D|-5----7-8----7-3----7-5----|-5----7-8----7-3----7-5-----5-3-----|
A|---------------------------|--------------------------------6-5-|
E|---------------------------|------------------------------------|

G|-------------------------------------------------------|
D|---------------------------|---------------------------|
A|-3----5-6----5-1----5-3----|-3----5-6----5-1----5-3----|
E|---------------------------|---------------------------|


(fast)
Chorus 1:

G|-----------------|-----------------|-----------------|----------------|
D|-----5-5-3-3-1-1-|-----8-8-6-6-5-5-|-----------------|---------2-3-2--|
A|-3-3-------------|-6-6-------------|-----5-5-6-6-5-5-|-3-3-3-3-------3| (x2)
E|-----------------|-----------------|-6-6-------------|----------------|


Verse 1:

G|-----------------|-----------------|-----------------|-----------------|
D|-----------------|-----------------|-----------------|-----------------|
A|-3-3-3-3-3-3-5-5-|-6-6-6-6-8-8-8-8-|-------------6-5-|-3-3-3-3-1-1-2-2-| (x2)
E|-----------------|-----------------|-6-6-6-6-6-6-----|-----------------|


Chorus 2:

G|-----------------|-----------------|-----------------|-----------------|
D|-----------------|-----------------|-----------------|-----------------|
A|-3-3-3-3-3-3-5-5-|-6-6-6-6-6-8-8-8-|-------------6-5-|-3-3-3-3-3-3-3-3-| (x2)
E|-----------------|-----------------|-6-6-6-6-6-6-----|-----------------|


Verse 2:

G|-----------------|-----------------|-----------------|-----------------|
D|-----------------|-----------------|-----------------|-----------------|
A|-3-3-3-3-3-3-5-5-|-6-6-6-6-8-8-8-8-|-------------6-5-|-3-3-3-3-1-1-2-2-| (x2)
E|-----------------|-----------------|-6-6-6-6-6-6-----|-----------------|


Chorus 3:

G|-----------------|-----------------|-----------------|-----------------|
D|-----------------|-----------------|-----------------|-----------------|
A|-3-3-3-3-3-3-5-5-|-6-6-6-6-8-8-8-8-|-------------6-5-|-3-3-3-3-3-3-3-3-| (x2)
E|-----------------|-----------------|-6-6-6-6-6-6-----|-----------------|


Guitar solo 1 followed by Verse 3:

G|-----------------|-----------------|-----------------|-----------------|
D|-----------------|-----------------|-----------------|-----------------|
A|-3-3-3-3-3-3-5-5-|-6-6-6-6-6-8-8-8-|-------------6-5-|-3-3-3-3-3-3-3-3-| (x2)
E|-----------------|-----------------|-6-6-6-6-6-6-----|-----------------|

G|-----------------|-----------------|-----------------|-----------------|
D|-----------------|-----------------|-----------------|-----------------|
A|-3-3-3-3-3-3-5-5-|-6-6-6-6-6-8-8-8-|-------------6-5-|-3-3-3-3-1-1-2-2-| (x2)
E|-----------------|-----------------|-6-6-6-6-6-6-----|-----------------|

Chorus 4:

G|-----------------|-----------------|-----------------|-----------------|
D|-----------------|-----------------|-----------------|-----------------|
A|-3-3-3-3-3-3-5-5-|-6-6-6-6-8-8-8-8-|-------------6-5-|-3-3-3-3-3-3-3-3-| (x2)
E|-----------------|-----------------|-6-6-6-6-6-6-----|-----------------|


Guitar solo 2:

G|-----------------|-----------------|-----------------|-----------------|
D|-----------------|-----------------|-----------------|-----------------|
A|-3-3-3-3-3-3-5-5-|-6-6-6-6-6-8-8-8-|-------------6-5-|-3-3-3-3-1-1-2-2-| (x2)
E|-----------------|-----------------|-6-6-6-6-6-6-----|-----------------|

Chorus 5:

G|-----------------|-----------------|-----------------|-----------------|
D|-----------------|-----------------|-----------------|-----------------|
A|-3-x-x-x-x-x-x-5-|-6-x-x-x-x-x-x-5-|---------------5-|-3-x-x-x-x-x-x-x-|
E|-----------------|-----------------|-6-x-x-x-x-x-x---|-----------------|

G|-----------------|-----------------|-----------------|-----------------|
D|-----------------|-----------------|-----------------|-----------------|
A|-3-x-x-x-x-x-x-5-|-6-x-x-x-x-x-x-5-|---------------5-|-3-3-3-3-3-3-3-3-|
E|-----------------|-----------------|-6-x-x-x-x-x-x---|-----------------|


Chorus 6:

G|-----------------|-----------------|-----------------|-----------------|
D|-----------------|-----------------|-----------------|-----------------|
A|-3-3-3-3-3-3-5-5-|-6-6-6-6-8-8-8-8-|-------------6-5-|-3-3-3-3-3-3-3-3-| (x2)
E|-----------------|-----------------|-6-6-6-6-6-6-----|-----------------|

Verse 4:

G|-----------------|-----------------|-----------------|-----------------|
D|-----------------|-----------------|-----------------|-----------------|
A|-3-3-3-3-3-3-5-5-|-6-6-6-6-6-8-8-8-|-------------6-5-|-3-3-3-3-1-1-2-2-| (x4)
E|-----------------|-----------------|-6-6-6-6-6-6-----|-----------------|

G|-----------------|-----------------|-----------------|-----------------|
D|-----2-2-3-3-2-2-|-----5-5-6-6-5-5-|-----------------|-----2-2-3-3-2-2-|
A|-3-3-------------|-6-6-------------|-----5-5-6-6-6-5-|-3-3-------------| (x2)
E|-----------------|-----------------|-6-6-------------|-----------------|

G|-----------------|-----------------|-----------------|-----------------|
D|-----------------|-----------------|-----------------|-----------------|
A|-3---3---3---3---|-6---6---6---6---|-----------------|-3---3---1-1-2-2-| (x2)
E|-----------------|-----------------|-6---6---6---6---|-----------------|

End:

G|-----------------|
D|-----------------|
A|-3~---------3333-|
E|-----------------|


Tap to rate this tab
# A B C D E F G H I J K L M N O P Q R S T U V W X Y Z