Guitaretab - guitar tabs
Song name
# A B C D E F G H I J K L M N O P Q R S T U V W X Y Z

Casualties - 25 Years Too Late tab

intro:
e|------------------------------------------------------------------------|
B|------------------------------------------------------------------------|
G|-6-6-6-7-7-7-9-9-9--11-11-9-9-7-----------------------------------------|
D|--7-7-7-7-7-7-9-9-9-----------------------------------------------------|
A|------------------------------------------------------------------------|
E|------------------------------------------------------------------------|

e|------------------------------------------------------------------------|
B|--------------------------------(2x)-then-------------------------------|
G|-66666666-77777777-99999999-77777777------6~----------------------------|
D|-77777777-77777777-99999999-77777777------7~----------------------------|
A|------------------------------------------------------------------------|
E|------------------------------------------------------------------------|
[ Tab from: http://www.guitaretab.com/c/casualties/61993.html ]
verse:
e|------------------------------------------------------------------------|
B|------------------------------------------------------------------------|
G|-99999999---------------------------------------------------------------|
D|-99999999-99999999-77777777-10-10-12-12---------------------------------|
A|-77777777-99999999-77777777-10-10-12-12---------------------------------|
E|------------------------------------------------------------------------|

chorus:
e|------------------------------------------------------------------------|
B|------------------------------------------------------------------------|
G|------9999--------------------------------------------------------------|
D|-7777-9999-999-7-99-----------------------------------------------------|
A|-7777-7777-999-7-99-----------------------------------------------------|
E|-5555------777-5-77-----------------------------------------------------|

| /  slide up
| \  slide down
| h  hammer-on
| p  pull-off
| ~  vibrato
| +  harmonic
| x  Mute note

questions?    crust_and_anguish_life@yahoo.com
Related for 25 Years Too Late tab
×
25 Years Too Late