Song name
# A B C D E F G H I J K L M N O P Q R S T U V W X Y Z

Casualties - Punx Unite tab

Intro 1
|---------------------|
|---------------------|
|--11-------------11--|
|--11---9----11----11-| 
|--9----9----11----9--|
|-------7----9--------|
Intro 2
|------|
|------|
|------|
|--9---| 
|--9---|
|--7---|
Intro 3
|---------------------|
|---------------------|
|6----7----6-----7----|
|6----7----6-----7----|
|4----5----4-----5----|
|---------------------|

Verse
|---------------------------------------|
|---------------------------------------|
|---------11----6-----7-----6-----7-----|
|---9-----11----6-----7-----6-----7-----| 
|---9-----9-----4-----5-----4-----5-----|
|---7-----------------------------------|

Chorus
|------------------------|
|------------------------|
|---11---------9---------|
|---11----9----9----11---| 
|---9-----9----7----11---|
|---------7---------9----|

Interlude
|------------------------------------------|
|------------------------------------------|
|---9---------9----------9-----------------|
|---9----9----9----9-----9----6-------8----|
|---7----9----7----9-----7----6-------8----|
|--------7---------7----------4-------6----|

Bridge
|------------------|
|------------------|
|--------x-x-x-x---|
|---9----x-x-x-x---| 
|---9----x-x-x-x---|
|---7----x-x-x-x---|
(Pick Slide after fourth time)

Outro
|----------------------------|
|----------------------------|
|---4------7-----9----10-----|
|---4------7-----9----10-----| 
|---2------5-----7----8------|
|----------------------------|
 (will fade then return, play approx. 12 times)

ORDER:
Intro 1 (x6)
Intro 2 (x3)
Intro 3 (x1)
Verse   (x4)
Chorus  (x3)
Interlude (x1)
Verse   (x4)
Chorus  (x3)
Interlude (x1)
Bridge  (x4)
Verse   (x4)
Chorus  (x3)
Interlude (x1)
Outro   (x12)
Tap to rate this tab
 
# A B C D E F G H I J K L M N O P Q R S T U V W X Y Z