Song name
# A B C D E F G H I J K L M N O P Q R S T U V W X Y Z

Casualties - On The Streets tab

THE CASUALTIES
-ON THE STREETS-
TABBED BY:VICIOUSPUNX7

STANDARD TUNNING

Part1 2x

e|-----------------------------|
b|-----------------------------|
g|-----------------------------|
d|-888888-888888-888888-888888-|
a|-888888-888888-888888-888888-|
e|-666666-666666-666666-666666-|

e|-----------------------------|
b|-----------------------------|
g|-666666-666666-666666-666666-|
d|-666666-666666-666666-666666-|
a|-444444-444444-444444-444444-|
e|-----------------------------|
Part2 (a) 10x

e|---------------|
b|---------------|
g|---10-11-------|
d|-8-10-11-11----|
a|-8--8--9-11----|
e|-6--------9----|
Part2 (b) 4x

e|----------------------|
b|----------------------|
g|-8-8-8-8--------------|
d|-8-8-8-8-6-6-6-6------|
a|-6-6-6-6-6-6-6-6------|
e|-----------4-4-4-4----|
Part2 4x Part2 (b) 4x

Part3 2x

e|-9-8--9-8--9-8--9-8--11--11--11--11-------|
b|------9----9----9----9---9---9---9---9----|
g|------------------------------------------|
d|------------------------------------------|
a|------------------------------------------|
e|------------------------------------------|
Part4 9x

e|--------------------------------------------------------|
b|--------------------------------------------------------|
g|--------------------------------------------------------|
d|-10-10-10-10--11-11-11-11--10-10-10-10--11-11-11-11-----|
a|-10-10-10-10--11-11-11-11--10-10-10-10--11-11-11-11-----|
e|--8--8--8--8----9--9--9--9----8--8--8--8----9--9--9--9--|
Part4 continued

e|------------------------------------------|
b|------------------------------------------|
g|13-13-13-13------------------13-13-13-13--|
d|13-13-13-13--10-10-10-10-----13-13-13-13--|
a|11-11-11-11--10-10-10-10-----11-11-11-11--|
e|--------------9--9--9--9------------------|
Part3 2x
Tap to rate this tab
# A B C D E F G H I J K L M N O P Q R S T U V W X Y Z