Song name
# A B C D E F G H I J K L M N O P Q R S T U V W X Y Z

Casualties - Riot Live tab

song: riot
artist: the casualties
tabbed by: julio rangel


intro 

|-------------(4x)------------------|
|-----------------------------------|
|--4444--------7777--------7-6------|
|--4444--4444--7777--7777--7-6------|
|--2222--4444--5555--7777--5-4------|
|--------2222--------5555-----------|
pm.......................      

|-(4x)----|-------------------------|
|---------|--4----------------------|
|--7-6-4--|-----6--4--2---4-2-4-----|
|--7-6-4--|-------------------------|
|--5-4-2--|-------------------------|
|---------|-------------------------|


verse

|-----------------------------------|
|-----------------------------------|
|--4444--------7777-----7-6---------|
|--4444--4444--7777--7--7-6---------|
|--2222--4444--5555--7--5-4---------|
|--------2222--------5--------------|


chorus

|---------------------------------------------|
|---------------------------------------------|
|-777777--999999------------------------------|
|-777777--999999--777777--5555--7777----------|
|-555555--777777--777777--5555--7777----------|
|-----------------555555--3333--5555----------|


bridge

|--(4x)----|-(3x)----|-------------------------|
|----------|---------|--4----------------------|
|---4------|--7-6-4--|-----6--4--2---4-2-4-----|
|---4------|--7-6-4--|-------------------------|
|---2------|--5-4-2--|-------------------------|
|----------|---------|-------------------------|


solo

|-------------------------------------------------|
|-------------------------------------------------|
|-7777777777-9999999999----------------5-7(b)-----|
|-----------------------7777777777-5-7------------|
|-------------------------------------------------|
|-------------------------------------------------|


outro

|-----------------------------------|
|-----------------------------------|
|--4444--------7777--------7-6------|
|--4444--4444--7777--7-----7-6------|
|--2222--4444--5555--7-----5-4------|
|--------2222--------5--------------|


intro x1
verse x4
chorus x2
verse x4
chorus x2
verse x4
bridge x1
verse x4
solo x4
outro x1

thats it, please rate!!!

questions, comments, concerns: xxcoolbeanzxx@yahoo.com
Tap to rate this tab
# A B C D E F G H I J K L M N O P Q R S T U V W X Y Z