Song name
# A B C D E F G H I J K L M N O P Q R S T U V W X Y Z

Casualties - Unknown Soldiers tab

-----------------------------------------------------------------------------
	            Unknown Soldier - The Casualties
-----------------------------------------------------------------------------
Tabbed by: midnighthour24


/  slide up
 \  slide down
 ~  vibrato
 x  Mute note

Intro
e|-------------------------|----------------------------|
B|-------------------------|----------------------------|
G|-------------------------|----------------------------|
D|-10---12-13--12-8-----10-|----10---12-13--12-8-----10-|
A|-------------------10----|-10-------------------10----|
E|-------------------------|----------------------------|

e|---------------------------------------------|
B|---------------------------------------------|
G|---------------------------------------------|
D|----10-8-10-12-13-12-8-12-15-13-12-8---------|
A|-10----------------------------------10-8-10-|
E|---------------------------------------------|

e|-------------------------------------------------|
B|-------------------------------------------------|
G|-------------------------------------------------|
D|----10-8-10-12-13-12-8-12-15-17-15-13-12-13-12-8-|
A|-10----------------------------------------------|
E|-------------------------------------------------|

Verse 1/ Chorus
e|--------------------------------------------------------------------|
B|--------------------------------------------------------------------|
G|-5--5-5-5-5-5--7/8--8-8-8-8-8--7/-----------------------------------|
D|-5--5-5-5-5-5--7/8--8-8-8-8-8--7/8--8-8-8-8-8--7/10--10-10-10-10-10-|
A|-3--3-3-3-3-3--5/6--6-6-6-6-6--5/8--8-8-8-8-8--7/10--10-10-10-10-10-|
E|---------------------------------6--6-6-6-6-6--5/8----8--8--8--8--8-|

Bridge
e|-----------------------------------------------------|
B|-----------------------------------------------------|
G|-----------------------------------------------------|
D|-5--5-5-5--7--8--8/12-12\10--7--7-7-7--8--7--7\5-5\3-|
A|-3--3-3-3--5--6--6/10-10\8---5--5-5-5--6--5--5\3-3\1-|
E|-----------------------------------------------------|

Solo
e|---------------------------------------------------------------|
B|---------------------------------------------------------------|
G|---------------------------------------------------------------|
D|-10--10-10-10--12-13\12-13-12\10--8--8-8-8--10--13\12-13-12\10-|
A|---------------------------------------------------------------|
E|---------------------------------------------------------------|

e|---------------------------------------------------------------|
B|---------------------------------------------------------------|
G|------------------------------------12-10-12-10-12\10----------|
D|-10--10-10-10--12-13\12-13-12/13\12-------------------13-12\10-|
A|---------------------------------------------------------------|
E|---------------------------------------------------------------|

Verse 2
e|--------------------------------------------------------------------|
B|--------------------------------------------------------------------|
G|-5-------------7/8-------------7/-----------------------------------|
D|-5--5-5-5-5-5--7/8--8-8-8-8-8--7/8-------------8/10-----------------|
A|-3--3-3-3-3-3--5/6--6-6-6-6-6--5/8--8-8-8-8-8--8/10--10-10-10-10-10-|
E|---------------------------------6--6-6-6-6-6--5/8----8--8--8--8--8-|
      x x x x x       x x x x x       x x x x x         x  x  x  x  x

End
e|----------------------------------|
B|----------------------------------|
G|-5~--5~-------------------5-5-5-5-|
D|-5~------5~---------------5-5-5-5-|
A|-3~----------6~--1~--3~---3-3-3-3-|
E|----------------------------------|


Into
Verse1/ Chorus x10
Bridge x2
Verse1/ Chorus x4
Solo
Verse2 x2
Verse1/ Chorus x10
Ending

-----------------------------------------------------------------------------
This is my first time tabing something, so I'm sorry if it is a little different than 
I'm almost positive this is the correct way to play this song. The last time I checked 
were some tabs for the song but they wheren't right, so I did it the right way.
Enjoy
Tap to rate this tab
# A B C D E F G H I J K L M N O P Q R S T U V W X Y Z