Song name
# A B C D E F G H I J K L M N O P Q R S T U V W X Y Z

Casualties - Vip tab

#----------------------------------PLEASE NOTE--------------------------------#
#This file is the author's own work and represents their interpretation of the#
#song. You may only use this file for private study, scholarship, or research.#
#-----------------------------------------------------------------------------#
#-- File created with Instab - http://www.pconline.com/~smcarey/instab.html --#
#-----------------------------------------------------------------------------#

Author/Artist: The Casualties
Title: VIP
Album: Under Attack
Transcribed by: weeman
Email: alkalinetrio6204@aol.com

this is one of my fave songs from the new casualties record, which by the way
is awsome so buy it yesterday.
i havent written the order so work it out, its all there exept one small lead
part which i just couldnt understand, just improvise i think thats what jake did

-----------------------------------------------------------------------------|
-----------------3-------------------3---------------------3-----------------|
-5---5---5---5-----3-----5---5---5-------5-5---5---5---5-----3---5*----5*----|
---5---5---5---5-----5-5---5---5---5---5-----5---5---5---5-----5----5*----5*-|
-----------------------------------------------------------------------------|
-----------------------------------------------------------------------------|
intro  part 1


-----------------------------------------------------------------------------|
-----------------------------------------------------------------------------|
-55555555-------------------5555---------------------------------------------|
-55555555-55555555-33333333-5555-5555----------------------------------------|
-33333333-55555555-33333333-3333-5555----------------------------------------|
----------33333333-11111111------3333----------------------------------------|
 intro part 2 + verse (sometimes palm muted)


-----------------------------------------------------------------------------|
-----------------------------------------------------------------------------|
------------------5555555555555555-------------------------------------------|
-3333333333333333-5555555555555555-3333333333333333-5555555555555555---------|
-3333333333333333-3333333333333333-3333333333333333-5555555555555555---------|
-1111111111111111------------------1111111111111111-3333333333333333---------|
 \             x3                / \         4THTIME              /
chorus


-----------------------------------------------------------------------------|
-----------------3--------------------3--------------------------------------|
-5---5-5---5-5-----3--5---5-5---5-5-----3---5*----5*-------------------------|
---5-----5-----5--------5-----5-----5-----5----5*----5*----------------------|
-----------------------------------------------------------------------------|
-----------------------------------------------------------------------------|
 \       X2        /  \       3RD TIMEONLY          /


-----------------------------------------------------------------------------|
-6-5-3-6-6-5-3-5bbb-3---6-5-3-6-6-5-3-12bbb-10----6-5-3-6-6-5-3------3-------|
----------------------5------------------------12---------------5bbb---5-----|
-----------------------------------------------------------------------------|
-----------------------------------------------------------------------------|
-----------------------------------------------------------------------------|
end solo

---------------5\3-12\10-----------------------------------------------------|
-6-5-3-6-6-5-3---------------------------------------------------------------|
-----------------------------------------------------------------------------|
-------------------------5---------------------------------------------------|
-------------------------5---------------------------------------------------|
-------------------------3---------------------------------------------------|
Tap to rate this tab
# A B C D E F G H I J K L M N O P Q R S T U V W X Y Z