Song name
# A B C D E F G H I J K L M N O P Q R S T U V W X Y Z

Casualties - Rebelde De Hoy En Dia tab

e---------------------|
B---------------------|
G-9----7--------------|
D-9----7----10--9--7--|
A-7----5----10--9--7--|
E------------8--7--5--|


e--------------------------------|
B--------------------------------|
G------12----------12----11----9-|
D-9----12----12----12----11----9-|
A-9----10----12----10----9-----7-|
E-7----------10------------------|


e---------------------------|
B---------------------------|
G-9----7--------------------|
D-9----7----10--9--7--------|
A-7----5----10--9--7--------|
E------------8--7--5--------|


e------------------------|
B------------------------|
G-11----7----9-----------|
D-11----7----9----9------|
A-9-----5----7----9------|
E-----------------7------|


e----------------------------------|
B----------------------------------|
G-11-11-11------------9-9-9--------|
D-11-11-11--12-12-12--9-9-9--9-9-9-|
A-9--9--9---12-12-12--7-7-7--9-9-9-|
E-----------10-10-10---------7-7-7-|
Tap to rate this tab
# A B C D E F G H I J K L M N O P Q R S T U V W X Y Z