Song name
# A B C D E F G H I J K L M N O P Q R S T U V W X Y Z

Casualties - Great American Progress tab

The Casualties 
Great American Progress

Intro/fill
e|---------------------|
B|---------------------|
G|------7-6--9------6--|
D|-7-6--7-6--9-9--7-6--|
A|-7-6--5-4--7-9--7-4--|
E|-5-4---------7--5----|

e|------------------|
B|------------------|
G|------------------|
D|-7666666666666666-|
A|-7666666666666666-|
E|-5444444444444444-|

e|------------------|
B|------------------|
G|-7666666666666666-|
D|-7666666666666666-|
A|-5444444444444444-|
E|------------------|

e|------------------|
B|------------------|
G|-9----------------|
D|-9-99999999999999-|
A|-7-99999999999999-|
E|---77777777777777-|

e|------------------|
B|------------------|
G|---66666666666666-|
D|-7-66666666666666-|
A|-7-44444444444444-|
E|-5----------------|

Verse
e|-----------------|
B|-----------------|
G|-----666-------4-|
D|-666-666-7-4-6-4-|
A|-666-444-7-4-6-2-|
E|-444-----5-2-4---|


e|-------------------|
B|--------------55-7-|
G|-666666633333-44-6-|
D|-666666633333-22-4-|
A|-444444411111------|
E|-------------------|


Final Verse
e|-------------------|
B|-6-77--------------|
G|-4-66-3-33-3666666-|
D|-2-44-3-33-3666666-|
A|------1-22-2444444-|
E|-------------------|

End
e|--------------------|
B|--------------------|
G|-----666-------4-6\-|
D|-666-666-7-4-6-4-6\-|
A|-666-444-7-4-6-2-4\-|
E|-444-----5-2-4------|
Tap to rate this tab
# A B C D E F G H I J K L M N O P Q R S T U V W X Y Z