Song name
# A B C D E F G H I J K L M N O P Q R S T U V W X Y Z

Casualties - On City Streets tab

Casualties
On City Streets

Verse/Chorus
e------------------------------------------------------------------|
B------------------------------------------------------------------|
G-777777777777777-555555555555555-5555555-----555-777777777777777--|
D-777777777777777-555555555555555-5555555-777-555-777777777777777--|
A-555555555555555-333333333333333-3333333-777-333-555555555555555--|
E-----------------------------------------555----------------------|

Solo
e-10-10-10-10-10-10-10-10-10-10-10-10-|
B-10-10-10-10-10-10-10-8--8--7--7--7--|
G-------------------------------------|
D-------------------------------------|
A-------------------------------------|
E-------------------------------------| X2

e-8-8-8-8-8-8-8-8-8-8-8-8-|
B-8-8-8-8-8-8-8-6-6-5-5-5-|
G-------------------------|
D-------------------------|
A-------------------------|
E-------------------------|

e-10-10-10-10-10-10-10-10-10-10-10-10-|
B-10-10-10-10-10-10-10-8--8--7--7--7--|
G-------------------------------------|
D-------------------------------------|
A-------------------------------------|
E-------------------------------------|

Bridge
e---------------------------------------------------------------|
B-6666666------------------------6666666-5555555----------------|
G-5555555-5555555-77777777777777-5555555-4444444-55555555555555-|
D-3333333-5555555-77777777777777-3333333-2222222-55555555555555-|
A---------3333333-55555555555555-----------------33333333333333-|
E---------------------------------------------------------------|
Tap to rate this tab
# A B C D E F G H I J K L M N O P Q R S T U V W X Y Z