Song name
# A B C D E F G H I J K L M N O P Q R S T U V W X Y Z

Casualties - System Failed Us Again tab

System Failed Us Again
The Casualties

Intro
e|--------------------------|
B|--------------------------|
G|--------------------------|
D|--------------------------|
A|-11xx--9xx--7xx--6xx--4~~-|
E|-9-xx--7xx--5xx--4xx--2~~-|

Chorus x2
e|-----------------------------------------|
B|-----------------------------------------|
G|-----------------------------------------|
D|-11-------------------66666--------------|
A|-9(x8)--12------77777-44444-444444-4x4x4-|
E|--------10(x8)--55555-------222222-2x2x2-|

Verse 1 x2
e|---------------------------------------|
B|---------------------------------------|
G|---------------------------------------|
D|-11-------------------66666------------|
A|-9(x8)--12------77777-44444-4444444444-|
E|--------10(x8)--55555-------2222222222-|

Chorus x2

Verse 2
e|----------------------------------------------------|
B|-77777777-1099999999-1210101010--9~--10-9--7--5--7--|
G|-xxxxxxxx-x-xxxxxxxx-x-xxxxxxxx--x~--x--x--x--x--x--|
D|-44444444-7-66666666-9-77777777--6~--7--6--4--2--4--|
A|----------------------------------------------------|
E|----------------------------------------------------|
This Verse can be played as normal octaves on the A string
but I've tabbed it like this so it's clearer to see. ; ) 

Verse 3 x2 (Play verse 1)
Chorus x2
Verse 4 (Play Verse 2)

Bridge            x3 |
e|-------------------|--------------------------|
B|-------------------|--------------------------|
G|-------------------|--------------------------|
D|---xxxx-4/6-666666-|--------------------------|
A|-7-xxxx-2/4-444444-|-11xx--9xx--7xx--6xx--4~~-|
E|-5-xxxx------------|-9-xx--7xx--5xx--4xx--2~~-|

Verse 5 x2
e|--------------------------------------------------|
B|--------------------------------------------------|
G|--------------------------------------------------|
D|-11-------------------------------6~--------------|
A|-9---------12---------------7~----4~----4~--------|
E|-----------10---------------5~----------2~--------|

Chorus x2

End               x3 |
e|-------------------|--------------------------|
B|-------------------|--------------------------|
G|-------------------|--------------------------|
D|---xxxx-4/6-666666-|--------------------------|
A|-7-xxxx-2/4-444444-|-11xx--9xx--7xx--6xx--4~~-|
E|-5-xxxx------------|-9-xx--7xx--5xx--4xx--2~~-|
Tap to rate this tab
# A B C D E F G H I J K L M N O P Q R S T U V W X Y Z