Song name
# A B C D E F G H I J K L M N O P Q R S T U V W X Y Z

Casualties - Stay Out Of Order tab

Help us improve GuitareTab! Take a short survey!
The Casualties - Stay Out of Order


Intro

E---------------------|
B---------------------|
G---------------------|
D---------------------|
A-4/7/4--4/7/4--4/7/4-|
E-2/5/2--2/5/2--2/5/2-|

Verse    play 6 times

E--------------------------------------|
B--------------------------------------|
G--------------------------------------|
D-66666666-----------66666666----------|
A-44444444-4/7/4444--44444444-4/7/4444-|
E----------2/5/2222-----------2/5/2222-|

Chorus

E--------------------------------------------|
B--------------------------------------------|
G--------------------------------------------|
D-44-4------66-6-66-6-(3x)----------9999-8-7-|
A-22-2-66-6-44-4-44-4------77777777-7777-6-5-|
E------44-4----------------55555555----------|

Verse

E--------------------------------------|
B--------------------------------------|
G--------------------------------------|
D-66666666-----------66666666----------|
A-44444444-4/7/4444--44444444-4/7/4444-|
E----------2/5/2222-----------2/5/2222-|

Chorus

E--------------------------------------------|
B--------------------------------------------|
G--------------------------------------------|
D-44-4------66-6-66-6-(3x)----------9999-8-7-|
A-22-2-66-6-44-4-44-4------77777777-7777-6-5-|
E------44-4----------------55555555----------|

E---------------------|
B---------------------|
G---------------------|
D---------------------|
A-4/7/4--4/7/4--4/7/4-|
E-2/5/2--2/5/2--2/5/2-|

Chorus

E--------------------------------------------|
B--------------------------------------------|
G--------------------------------------------|
D-44-4------66-6-66-6-(3x)----------9999-8-7-|
A-22-2-66-6-44-4-44-4------77777777-7777-6-5-|
E------44-4----------------55555555----------|
Related for Stay Out Of Order tab