Song name
# A B C D E F G H I J K L M N O P Q R S T U V W X Y Z

Casualties - Time To Think tab

The Casualties -  Time to Think  



Intro
e|----------------------------------------------------|
B|----------------------------------------------------|
G|----------7-----7------------7-----999--------------|
D|-----9----7--7--7-------9----7-7---999--------------|
A|-----9----5--7--5-------9----5-7---777--------------|
E|-----7-------5----------7------5--------->>>>>>-----|

Verse
e|----------------------------------------------------|
B|----------------------------------------------------|
G|---4---767-----76------4----767-----99--------------|
D|---4---767--7--76------4----767--7--99--------------|
A|---2---545--7--54------2----545--7--77--------------|
E|------------5--------------------5------------------|

Chorus
e|----------------------------------------------------|
B|----------------------------------------------------|
G|---------7767---------44----------------------------|
D|----777--7767---555---44--5-------------------------|
A|----777--5545---555---22--5-------------------------|
E|----555---------333-------3-------------------------|

Riff
e|------------------------------------------------------------------------|
B|------------------------------------------------------------------------|
G|---9-7-------------9-7-------------9-7--------------9-7-----11-11-11----|
D|---9-7-9-7-9-9-9---9-7-9-7-9-9-9---9-7-9-7-9-9-9----9-7-9-7-11-11-11----|
A|---7-5-9-7-9-9-9---7-5-9-7-9-9-9---7-5-9-7-9-9-9----7-5-9-7--9--9--9----|
E|-------7-5-7-7-7-------7-5-7-7-7-------7-5-7-7-7--------7-5-------------|

Bridge
e|-----------------------------------------------------|
B|-----------------------------------------------------|
G|----4(444444)---7(777777)-------pm-------7(77777)----|
D|----4(444444)---7(777777)----7(777777)---7(77777)----|
A|----2(222222)---5(555555)----7(777777)---5(55555)----|
E|-------pm-----------pm-------5(555555)-------pm------|

e|-----------------------------------------------------|
B|-----------------------------------------------------|
G|---4(444444)---7(777777)---------pm--------99--76----|
D|---4(444444)---7(777777)-----7(777777)-----99--76----|
A|---2(222222)---5(555555)-----7(777777)-----77--54----|
E|------pm-----------pm--------5(555555)---------------|

Post Bridge 
e|-----------------------------------------------------|
B|-----------------------------------------------------|
G|---44444--77777----------77777--------44444--77777---|
D|---44444--77777--77777---77777--------44444--77777---|
A|---22222--55555--77777---55555--------22222--55555---|
E|-----------------55555-------------------------------|

e|-----------------------------------------------------|
B|-----------------------------------------------------|
G|-----------9-7-6-------------------------------------|
D|----77777--9-7-6-------------------------------------|
A|----77777--7-5-4-------------------------------------|
E|----55555--------------------------------------------|

Song order
Intro x1
Verse x2
Chorus x2
Verse x2
Chorus x2
Verse x2
Chorus x2
Riff x1
Bridge x1
Post Bridge x1
Verse x2
End on A577 chord
Tap to rate this tab
# A B C D E F G H I J K L M N O P Q R S T U V W X Y Z