Song name
# A B C D E F G H I J K L M N O P Q R S T U V W X Y Z

Casualties - Just Another Lie tab

Song:Just Another Lie
Band:The Casualties
Album:Stay Out Of Order
Tab By: Bam_12354

I couldn't figure out The Solo It was hard to hear 

Tuning:Standard

INTRO
e|-------------------------------------------------|x4
B|-------------------------------------------------|
G|-----------------------9-9999999-----------------|
D|---5-5555555-5-5555555-9-9999999-7-7-9-9-7-7-9-9-|
A|---5-5555555-5-5555555-7-7777777-7-7-9-9-7-7-9-9-|
E|---7-7777777-3-3333333-----------5-5-7-7-5-5-7-7-|
      PM------- PM------- PM-------
VERSE
e|------------------------------|
B|------------------------------|
G|-----------------9-9999-------|
D|---9-9999-5-5555-9-9999-9-9999|
A|---9-9999-5-5555-7-7777-9-9999|
E|---7-7777-3-3333--------7-7777|

CHORUS
e|---------------|
B|---------------|
G|---777-99---7--|
D|---777-99-7-7-9|
A|---555-77-7-5-9|
E|----------5---7|


Intro x4
Verse x6
Chorus x4
Verse x4
Chorus x4
Verse x4
CHorus x4
Verse x4
Chorse x4
Tap to rate this tab
# A B C D E F G H I J K L M N O P Q R S T U V W X Y Z