Song name
# A B C D E F G H I J K L M N O P Q R S T U V W X Y Z

Cat Power - Ice Water tab

This is my first tab and it's not 100% accurate, but it gets the job done..

Intro:

E-----------------0----|
B--7-7--5-5--5-5-----3-|
G----------------------|
D----------------------|
A-7-7--5-5--3-3--3--3--|
E----------------------|

Rest of the song:

E----------------------|
B--7-7--5-5--5-5--3--3-|
G----------------------|
D----------------------|
A-7-7--5-5--3-3--3--3--|
E----------------------|

Outro:

E-------------------|
B-------------------|
G-------------------|
D-9-9--7-7--5-5-5-5-|
A-7-7--5-5--3-3-3-3-|
E-0-0--0-0--0-0-0-0-|
Tap to rate this tab
# A B C D E F G H I J K L M N O P Q R S T U V W X Y Z