Song name
# A B C D E F G H I J K L M N O P Q R S T U V W X Y Z

Cat Power - Salty Dog tab

----------------------------------------------------------------------------
			     SALTY DOG - Cat Power
----------------------------------------------------------------------------
Album: The Covers Record 
Original: Papa Charlie Jackson (ca. 1925)

Tuning: Standard

Introduction/Verse:
e|---3--------------3-------|---0-------------0-------|
B|---1---1------1-------1---|---1---1-----1-------1---|
G|---0-----2------0-------2-|---0-----2-----0-------2-|
D|--------------------------|-------------------------|
A|-3---3------3-------3-----|-3---3-----3-------3-----|
E|--------------------------|-------------------------|

e|---1--------------1-------|---0-------------0-------|
B|---0---0------0-------0---|---1---1-----1-------1---|
G|---0-----2------0-------2-|---0-----2-----0-------2-|
D|--------------------------|-------------------------|
A|--------------------------|-3---3-----3-------3-----|
E|-3---3------3-------3-----|-------------------------|

Bridge:

e|-------------------------------|---0-------------0-------|
B|-------1-----------------------|---1---1-----1-------1---|
G|---------2---2--------3b-------|---0-----2-----0-------2-|
D|---3-------3------0------0---0-|-------------------------|
A|---------------------------0---|-3---3-----3-------3-----|
E|-1---1----------3---3----------|-------------------------|
Tap to rate this tab
# A B C D E F G H I J K L M N O P Q R S T U V W X Y Z