Song name
# A B C D E F G H I J K L M N O P Q R S T U V W X Y Z

Cat Power - Good Woman tab

Tabbed by: Thom Alexander
Email: thomasditchburn@hotmail.co.uk

Tuning: Standard

This is pretty much the same tab as 235w103s but I decided to tab it with the capo this 
because personally I found it complicated when trying to play through it...

So capo on the 1st :)


e|-------------|----------------------------------------------------|
B|---3s53s1---|-----1--------------1-------------------3---3--333--|
G|-------------|-------0------0--------0-------0------0---0----000--|
D|-------------|---------0h2--------------0h2-----------------------|
A|-------------|---3-------------3----------------------------------|
E|-------------|----------------------------------3-----------------|

e|------------------------------0-----------------------------------|
B|------------------------1-----------1-------------1---------------|
G|-----2---4---2--2-2--------2----------------0--------0-------0----|
D|---3---3---3----3-3--------------------2h3--------------0h2-------|
A|---------------------0-----------3-------------3------------------|
E|------------------------------------------------------------------|

e|--------------------------------0---------------------------------|
B|-----1-------------3------------------3---3-3-3-------------------|
G|--------0-------0----------0--------------0-0-0-----2---4--2------|
D|-----------0h2-----------0---0------------------------3-------3---|
A|--3---------------------------------------------------------------|
E|----------------------3------------3-------------1----------------|

e|--------------------0-|
B|--------------1-------|  Repeat throughout the song
G|----2-2-2--------2----|  then end on...
D|----3-3-3-------------|
A|-----------0----------|
E|----------------------|

e|--0-----------------------1---------------------------------------|
B|-----------1--1-1-1-----------3s53s1-------1---------------------|
G|-----2--------0-0-0-------------------------0---------------------|
D|--------3-----------------------------------2---------------------|
A|-----------------------1----------------3---3---------------------|
E|------------------------------------------------------------------|

| /  slide up
| \  slide down
| h  hammer-on
| p  pull-off
| ~  vibrato
| +  harmonic
| x  Mute note
=============================================================
Tap to rate this tab
# A B C D E F G H I J K L M N O P Q R S T U V W X Y Z