Song name
# A B C D E F G H I J K L M N O P Q R S T U V W X Y Z

Cat Power - From Fur City tab

|----------------------------------*|
|-----Cat-Power--------------------*|
|----------------------------------*|
|------------From-Fur-City---------*|
|----------------------------------*|
|----------------------------------*|


Ok 2 things you need to know for this easy tab:
1) It's a half step down
b) It's basically fingerpicking the Am chord with a hammer on the note c
   and in the end of the riff the f note in the bass.

|eb|------------------------------------------------------------*|
|Bb|--0h1-----1--------------0h1----0------------0---------0----*|
|Gb|-------2-----2------2--------2-------2---2--------2---------*|
|Db|------------------2-----------------------------------------*|
|Ab|--0---------------------------------------------------------*|
|Eb|----------------------------------1---1----1----1---1-------*|

It's a very haunting song that's all about your timing and intonation,
if you got a loop pedal you can add some flavour by soloing in A minor scale.
You can use this to experiment with and pick notes out of it:

|------------------------------------------------5--7--8------|
|---------------------------------------5--6--8---------------|
|------------------------------4--5--7------------------------|
|------------------------5--7---------------------------------|
|---------------5--7--8---------------------------------------|
|------5--7--8------------------------------------------------|

Lyrics:

From fur city to the the lives that we lost
And the loves that we lost
Rebel Rebel
Rebel you are
Only one

Boy with the buffalo tattoo on his arm
And with no show to play
Just a space and dirty hands
Of Jean Genet

You were spinnin' faster faster
Faster than when I came
It was a god given day

Freedom brother
Free to own brother
Let him go

From fur city to the southeastern bus station
Seems so sad
Since I can't spell sad
Don't feel bad

From fur city to the lives we lost and the loves that we lost
Rebel rebel
Rebel you are
Only one

Freedom brother
Free to own brother
Let him go
Tap to rate this tab
# A B C D E F G H I J K L M N O P Q R S T U V W X Y Z