Song name
# A B C D E F G H I J K L M N O P Q R S T U V W X Y Z

Cat Power - What Would The Community Think tab

-----------------------------------------------------------------------
             WHAT WOULD THE COMMUNITY THINK- Cat Power
-----------------------------------------------------------------------
Tabbed by: lifer
Email: paranoid_toaster@hotmail.com

Tuning: standard

For Vanessa

e|--------------------|---------|---------|----------------------------|
B|--------------------|---------|---------|----------------------------|
G|---------0----------|--2---0--|---------|----------------------------|
D|-----3-----3---2----|----0----|--4b--0--|----------------------------|
A|---3---3-----3---0--|---------|---------|----------------------------|
E|--------------------|---------|---------|----------------------------|

e|---------------------------------------------------------------------|
B|--------------------0------------------------------------------------|
G|---0--0--0--0---0----------------------------------------------------|
D|---3--3--3--2-----2--------------------------------------------------|
A|---3--3--3--0--------------------------------------------------------|
E|---------------------------------------------------------------------|
Tap to rate this tab
# A B C D E F G H I J K L M N O P Q R S T U V W X Y Z