Song name
# A B C D E F G H I J K L M N O P Q R S T U V W X Y Z

Cat Power - Good Clean Fun tab

---------------------------------------------------------------------
                   GOOD CLEAN FUN  Cat Power
---------------------------------------------------------------------
Tabbed by: lifer
Email: paranoid_toaster@hotmail.com

Tuning: standard

 Main/Verse
e|-------------------------------------------------------------------|
B|-------------------------------------------------------------------|
G|-------------------------------------------------------------------|
D|------0-----0---------0--------------------------------------------|
A|----2-----2-----3---3---3---1-h2-----------------------------------|
E|--0-----0-----0---1-------1----------------------------------------|

 Chorus
e|-------------------------------------------------------------------|
B|-------------------------------------------------------------------|
G|-------------------------------------------------------------------|
D|--0---0-----0---0-----2--------------------------------------------|
A|--2---2-----1---1-----2--------------------------------------------|
E|--3---3-----2---2-----0--------------------------------------------|

************************************

| /   slide up
| \   slide down
| h   hammer-on
| p   pull-off
| ~   vibrato
| +   harmonic
| x   Mute note
| b   Bend
| pb  Pre-bend
| br  Bend release
| pbr Pre-bend release
| brb Bend release bend

************************************
Tap to rate this tab
 
# A B C D E F G H I J K L M N O P Q R S T U V W X Y Z