Song name
# A B C D E F G H I J K L M N O P Q R S T U V W X Y Z

Cat Power - Sea Of Love chords

Highlighted       Show chord diagrams
-------------------------------------------------------------------------------
			     SEA OF LOVE - Cat Power
-------------------------------------------------------------------------------
Tabbed by:TheKidGuitar

There are a few ways to play this song. B, Eb7, E and C Sharp are good without a capo. 
This is more for seasoned players. For beginners, I suggest you play like this:

Capo: 4

Intro-

    G    D   Em   A7
e|-3-3--2-2--0-0--0-0-----|
B|-3-3--3-3--0-0--2-2-----|
G|-0-0--2-2--0-0--0-0-----|
D|-0-0--0-0--2-2--2-2-----|
A|-2-2--x-x--2-2--0-0-----|
E|-3-3--x-x--0-0--x-x-----|

 G
Come with me
 D
My love
 Em
To the sea
 A7
The sea of love
 G         D
I want to tell you
 Em
how much
  A7
I love you

 G
Do you remember
 D
When we met
 Em
That's the day
 A7
I knew you were my pet

 G       D
I wanna tell you
 Em
how much
 A7
I love you





-And So On And So Forth. If you like you can replace E minor with C, the sound 
fluctuates on different guitars so a C might sound better for some-
Tap to rate this tab
 
# A B C D E F G H I J K L M N O P Q R S T U V W X Y Z