Song name
# A B C D E F G H I J K L M N O P Q R S T U V W X Y Z

Cat Power - I Dont Blame You tab

Date: Wed, 2 Jul 2003 01:02:04 +1000
From: Daniel Bell 
Subject: c/cat_power/i_dont_blame_you.tab

Artist:    Cat Power
Title:     I Don't Blame You
Tabbed by: Daniel Bell (db97@uow.edu.au)

--------------------------------------------
The song has two sections: a verse a chorus. 
The End =)
--------------------------------------------


The Verse:
----------
    Dm      C
    1 & 2 & 3 & 4 &
E |-----1-----0-0---|
B |-----3-----1-1---|
G |-----2-----0-0---|
D |-0---------------|
A |---------3-------|
E |-----------------|



The Chorus:
-----------
    C       G         Am      F
    1 & 2 & 3 & 4 &   1 & 2 & 3 & 4 &
E |-----0-------1---|-----0-------1---|
B |-----1-------1---|-----1-------1---|
G |-----0-------0---|-----2-------2---|
D |----(2)-----(0)--|----(2)-----(3)--|
A |-3----------(2)--|-0----------(3)--|
E |---------3-------|---------1-------|



The Structure:
--------------
Verse *8
Short Pause
Chorus*2
Verse *4
Short Pause
Chorus*2
Verse *4
Short Pause
Chorus*2
Verse *4
Short Pause
Chorus*2
Short Pause
Verse *4
Chorus*2
Verse *4
Short Pause
Chorus*3
Verse *2
Short Pause
Chorus*2
Short Pause
Chorus*2
Verse *4
End with C
Tap to rate this tab
 
# A B C D E F G H I J K L M N O P Q R S T U V W X Y Z