Song name
# A B C D E F G H I J K L M N O P Q R S T U V W X Y Z

Cat Power - Love To Be Silly tab

e   -----------------------------------------------------------|
B   ------0--------------0------------0------------------------|
G   --------------3-------------3-------------0----------------|
D   ----------0-------------0-------------0-------------0------|  (x2)
A   -----------------------------------------------------------|
E   ---3-------------3-------------3-------------3-------------|

e   -----------------------------------------------------------|
B   --------------------------------------3------0-------------|
G   -------------------------------------------------2-----0---|
D   ----------0-------------0-------------0-------------0------|
A   -----------------------------------------------------------|
E   ---2-------------2-------------2-------------2-------------|

e   ------------------------0------3---------0-----------------|
B   --------------------3-------3------3-------------3---------|
G   --------------------------------------------------------0--|
D   ----------0-------------0-------------0-------------0------|
A   -----------------------------------------------------------|
E   ---3-------------3-------------3-------------3-------------|
Tap to rate this tab
# A B C D E F G H I J K L M N O P Q R S T U V W X Y Z