Song name
# A B C D E F G H I J K L M N O P Q R S T U V W X Y Z

Cat Power - Fate Of The Human Carbine tab

-------------------------------------------------------------------------------
			     Fate of The Human Carbine by Cat Power
-------------------------------------------------------------------------------

Peter Jeffries cover, from 'What Would the Community Think?' (1996). I may be 
slightly off with the way the first chord (Riff 1) is played, but otherwise this seems accurate.

Tabbed by: Scott H.

Tuning: Standard


Intro/Verse (Riff 1):

e|------------------------------------------|
B|------------------------------------------|
G|--9-9-9-9-9-9-9-9--9-9-9-9-9-9-9-9--------|
D|--9-9-9-9-9-9-9-9--9-9-9-9-9-9-9-9--------|
A|--9-9-9-9-9-9-9-9--9-9-9-9-9-9-9-9--------|
E|--7-7-7-7-7-7-7-7--7-7-7-7-7-7-7-7--------|

    Thinks of money all the time
    Doing it to annoy her
    She's on his conscience day and night
    So he acts...


Verse (Riff 2):

e|----------------------------------------------------------|
B|----------------------------------------------------------|
G|--10-10-10-10-10--9-9-9-9-9-9--7-7-7-7-7-7-7-7-7----------|
D|--10-10-10-10-10--9-9-9-9-9-9--7-7-7-7-7-7-7-7-7----------|
A|---0--0--0--0--0--0-0-0-0-0-0--0-0-0-0-0-0-0-0-0----------|
E|---8--8--8--8--8--7-7-7-7-7-7--5-5-5-5-5-5-5-5-5----------|

    ...like her employer


Chorus (Riff 3):

e|--------------------------------------------------------------|
B|--------------------------------------------------------------|
G|--9-9-9-9-9-9-9-9--7-7-7-7---7-7-7-7-7--9-9-9-9-9-9-9-9-------|
D|--9-9-9-9-9-9-9-9--7-7-7-7---7-7-7-7-7--9-9-9-9-9-9-9-9-------|
A|--9-9-9-9-9-9-9-9--0-0-0-0---0-0-0-0-0--9-9-9-9-9-9-9-9-------|
E|--7-7-7-7-7-7-7-7--5-5-5-5---5-5-5-5-5--7-7-7-7-7-7-7-7-------|

    They all come and peep through a hole in the wall
    Keep the bastards guessing


Riff 1, 2
    He likes to take the long way home
    It's another fine decision
    From six to seven he'll be all alone
    So he turns on televison
    Doesn't even notices as is the hours roll by

Riff 3
    It's lost inside the screen
    Watches the film about the evening sky
    It was someone else's dream

Riff 1, 2
    All come peep through the wall
    Keep the bastards guessing
    All come and peep through a hole in the wall
    Just to watch his heart undressing

Riff 3
    They all come and peep through a hole in the wall
    'Cause you look so impressive
Tap to rate this tab
 
# A B C D E F G H I J K L M N O P Q R S T U V W X Y Z