Song name
# A B C D E F G H I J K L M N O P Q R S T U V W X Y Z

Cat Power - Naked If I Want To tab

-------------------------------------------------------------------------------
			     Naked If I Want To by Cat Power
-------------------------------------------------------------------------------

This is a cover of a Moby Grape song, and it's easier to play than it might sound. I've
tabbed it as mostly barre chords, with the exception of the open E and open A. For the
intro (and outro), it's easiest and most sensible to play with your fingers in the E 
formation so that you can just start up the verse immediately after.

Tabbed by: Scott H.


Tuning: Standard


Intro:

e|----------0---------------0------------|
B|----0--------0-------0-----------------|
G|-1-----1-------1--------1--------------|
D|-2----------------0--------------------|
A|-2-------------------------------------|
E|---------------------------------------|



Verse:

e|-------7777--4444--4444---------------------|
B|-------7777--4444--4444--2222---------------|
G|-1111--8888--6666--4444--2222--1111---------|
D|-2222--9999--6666--6666--2222--2222---------|
A|-2222--9999--4444--6666--------2222---------|
E|-------7777--4444--4444---------------------|


    Would you let me walk down your street
    Naked if I wanted to?

    And can I fly fireworks
    On the fourth of every single July?

    And can I buy an amplifier
    On time, my sweet time?



Chorus:

e|-------7777------------------------|
B|-------7777--2222------------------|
G|-1111--8888--2222--1111------------|
D|-2222--9999--2222--2222------------|
A|-2222--9999--------2222------------|
E|-------7777------------------------|


    And I got no money
    I would pay this time
    And I got no money
    I will pay you before I die


Verse
    And would you let me walk down your streets
    Naked if we all wanted to?

    And can I fly fireworks
    On the fourth of every single July?

    And can I buy an aeroplane
    Way up high in the old blue sky?


Chorus
    And I got no mercy
    I would pay this time
    And I got no mercy
    I will pay you before I die



Outro:

e|--------------0-------------------------|
B|--0------0--------0------0--------------|
G|----1-------1-------1------1------------|
D|------0---------------0------0----------|
A|----------------------------------------|
E|----------------------------------------|
Tap to rate this tab
 
# A B C D E F G H I J K L M N O P Q R S T U V W X Y Z