Song name
# A B C D E F G H I J K L M N O P Q R S T U V W X Y Z

Cat Power - Cherokee tab

Intro Riff

|---------2-2----------|
|-3-3-3-3---------5----|
|-------------4-4------|
|----------------------|
|----------------------|
|----------------------|

Piano Bass Part (Goes with the progression below)

|----------|
|----------|
|----------|
|-2-0------|
|-----3-2--|
|----------|

Progression for the whole song (arpeggiated on electric guitar with slight distortion):

        Em | D | C | Bm |
        
Then second Piano part kicks in, higher

|----------------|----------------|--------------5-|---5--5-7-------|
|-5--5-5-5-5-5-7-|-7--7-7-7-7-7-8-|-8--8-8-8-8-8---|----------8-7---|
|----------------|----------------|----------------|----------------|
|----------------|----------------|----------------|----------------|
|----------------|----------------|----------------|----------------|
|----------------|----------------|----------------|----------------|
(Slight variations on this throughout)
        
Never knew love like this
The wind, moon, the earth, the sky
Sky so high
Never knew pain like this
Everything die, then die
Never knew love like this
The sun, the sea and I
Never knew pain, never knew shame
Now I know why

Bury me, marry me to the sky
Marry, marry me to the sky
Feels like time is on my time
Bury me upside down
Cherokee, kissing me
When I知, I知 going down
Feels like time is on my time
Bury me upside down
Cherokee, kissing me
When I知, I知 going down

Never knew love like this
The wind, moon, the earth, the sky
Sky so high
Never knew pain like this
Everything die, then die
Never knew love like this
The sun, the sea and I
Never knew pain, never knew shame
Now I know why

Bury me, marry me to the sky
Marry, marry me to the sky
Feels like time is on my time
Bury me upside down
Cherokee, kissing me
When I知, I知 going down
Feels like time is on my time
Bury me upside down
Cherokee, kissing me
When I知, I知 going down
Feels like time is on my time
Bury me upside down, down
Cherokee, kissing me
When I知, I知 going down.


Tab by dmcblue.

Lyrics taken from: 
http://www.sing365.com/music/lyric.nsf/Cherokee-lyrics-Cat-Power/61961D5F74561C4248257A2600288703

Send notes/corrections/additions to: dmcblue (at) gmail.com
Check out some of my music at: https://sites.google.com/site/dmcblue/
Tap to rate this tab
 
# A B C D E F G H I J K L M N O P Q R S T U V W X Y Z